Song name
# A B C D E F G H I J K L M N O P Q R S T U V W X Y Z

Madsen - Liebeslied tab

Madsen - Liebeslied

Intro:

----C-----Em------F----G--------C-----Em-----F-------G-------|

e]----------------8----10--------------------8---7---5---7---|
H]------------------8-----8--------------------8---8---8-----|
G]-----9-----9---------------------9-----9-------------------|
D]--10----10--------------------10----10---------------------|
A]-----------------------------------------------------------|
E]-----------------------------------------------------------|
(wird auch ber den Vers gespielt)


Vers:

C-------------------------Em-------------F--------------------G
Hrst du den Lrm drauen in den Straen   Auf den Pltzen und in den Gassen
C----------Em-----------F-----------G
Alle reden durcheinander und sagen nichts

C------------Em-----------F---------------G        
Wir leben in bsen Zeiten,  nur schlechte Neuigkeiten
C-----------------Em--------F--------------G
Sogar dein Nachbar verkndet das Ende der Welt


Prechorus:

----Am------G--------F-------C---C/H--Am------G--------F--------G------| 

e]--8---8---8---8-7--8---8---8---8-7--8---8---8---8-7--8---8----7------|
H]----8---8---8--------8---8---8--------8---8---8--------8---8--8------|
G]--------------------------------------------------------------7------|
D]---------------------------------------------------------------------|
A]---------------------------------------------------------------------|
E]---------------------------------------------------------------------|
                   
Am----------G--------------F-----------------------C--C/H
Wir fliehen aus der Stadt,  damit der Wahnsinn ein Ende hat

Am--------------------G----------F------------G 
Und du willst das ich etwas sing,  das dich glcklich macht


Chorus:

C----Em---------------F--F/E                  
Also sing ich dir ein Liebeslied  
------------Dm---------------------G
Um nur kurz Luft zu holen und dem Alltag zu entfliehen

C----Em----------------F--F/E 
Also singe ich dir ein Liebeslied
----------Dm--------------------------G
Mit allem drum und dran und schn das es dich gibt


Intro (1x)

C  Em  F  G


Vers 2:

Du willst nur kurz belogen werden 
und du willst dir nichts erklren
Dein kopf ist voll mit schlechten Melodien
Du willst nur kurz die Augen schlieen
Und dieses liebe Lied genieen
Wahrscheinlich ist es eine gute Medizin


Prechorus:

Wir fliehen aus der Stadt, damit der Wahnsinn ein Ende hat
Und du willst das ich etwas sing, das dich glcklich macht


Chorus:

Also sing ich dir ein Liebeslied
Um nur kurz Luft zu holen
Und dem Alltag zu entfliehen
Also sing ich dir ein Liebeslied
Mit allem drum und dran und schn das es dich gibt


Bridge:

F--Em----------------Dm---------C
so wie schon tausend andere vor mir
F----------------Em---------------Dm------------------G
Viel zu schn um wahr zu sein und trotzdem gefllt es dir


Chorus: (nur gitarre)

C----Em---------------F----F/E
Also sing ich dir ein Liebeslied
Dm-----------------------G
Das dich umarmt und dich charmant belgt


Interlude:

F  G  Am  Hm


Chorus: 

Also sing ich dir ein Liebeslied
Um nur kurz Luft zu holen
Und dem Alltag zu entfliehen
Also sing ich dir ein Liebeslied
Mit allem drum und dran und schn das es dich gibt




ein weiterer Dank an Madsen
Tap to rate this tab
# A B C D E F G H I J K L M N O P Q R S T U V W X Y Z