Guitaretab - guitar tabs
Song name
# A B C D E F G H I J K L M N O P Q R S T U V W X Y Z

Madsen - Kein Mann Fur Eine Nacht tab

Hier das Solo für alle Liebeshungrigen Singlegitarristen mit dem ihr alle Mädels rumkriegt :P

Der erste Part ist 100% richtig, beim 2. bin ich nicht sicher obs 100% wie das Original 
aber es hört sich dennoch gut an ;)
[ Tab from: http://www.guitaretab.com/m/madsen/177595.html ]
E------------------------------------------------------------------------------|
H-----------------12---12--12---14--16--bend16---16---14--12--bend13---bend13--|
G---13-13------13--------------------------------------------------------------|
D----------14------------------------------------------------------------------|
A------------------------------------------------------------------------------|
E------------------------------------------------------------------------------|

E------------------------------------------|
H----12------------------------------12----|
G--------14---13---14---13-----------------|
D------------------------------14----------|
A------------------------------------------|
E------------------------------------------|
Related for Kein Mann Fur Eine Nacht tab
Advertisement will be closed in 10 seconds