Madsen - Mein Herz Bleibt Hier tab

INTRO/VERSE

E|------------------------------|
B|------------------------------|
G|--12--/10---10---8------------|
D|--12--/10---8----8------------|
A|--10--/8---------6------------|
E|------------------------------|


PRE CHORUS


E|----------------------------------|
B|----------------------------------|
G|--5-5-5-5-5-5-5-5--3-3-3-3-3-3-3--|
D|--5-5-5-5-5-5-5-5--3-3-3-3-3-3-3--|
A|--3-3-3-3-3-3-3-3--1-1-1-1-1-1-1--|
E|----------------------------------|


CHORUS


E|------------------------------------|
B|------------------------------------|
G|--7-7-7-7-7-7-7-7--3-3-3-3-3-3-3-3--|
D|--7-7-7-7-7-7-7-7--3-3-3-3-3-3-3-3--|
A|--5-5-5-5-5-5-5-5--1-1-1-1-1-1-1-1--|
E|------------------------------------|

E|------------------------------------|
B|------------------------------------|
G|-------------------5-5-5-5-5-5-5-5--|
D|--5-5-5-5-5-5-5-5--5-5-5-5-5-5-5-5--|
A|--5-5-5-5-5-5-5-5--3-3-3-3-3-3-3-3--|
E|--3-3-3-3-3-3-3-3-------------------|
Tap to rate this tab
 
# A B C D E F G H I J K L M N O P Q R S T U V W X Y Z