Song name
# A B C D E F G H I J K L M N O P Q R S T U V W X Y Z

Madsen - Blockade tab

Madsen - Blockade

Album: Labyrinth
Instrument: Guitar
Tuning: Drop D

Tabbed By: Rolf Oslo


Intro / Verse

e||------------------------------------------------------------------|
B||------------------------------------------------------------------|
G||-11-11-111111-11-1111-111111-12--12--12-12-12-13--13-13--14-14-14-|
D||-x--x--x-x-x--x--x-x--x-x-x--x---x---x--x--x--x---x--x---x--x--x--|
A||-9--9--9-9-9--9--9-9--9-9-9--10--10--10-10-10-11--11-11--12-12-12-|
D||------------------------------------------------------------------|


Chorus
      < 3x >
e||-------------|-------------|
B||-------------|-------------|
G||-------------|-------------|
D||-5--7--4--9--|-5--5--7--7--|
A||-5--7--4--9--|-5--5--7--7--|
D||-5--7--4--9--|-5--5--7--7--|


Verse

e||------------------------------------------------------------------|
B||------------------------------------------------------------------|
G||-11-11-111111-11-1111-111111-12--12--12-12-12-13--13-13--14-14-14-|
D||-x--x--x-x-x--x--x-x--x-x-x--x---x---x--x--x--x---x--x---x--x--x--|
A||-9--9--9-9-9--9--9-9--9-9-9--10--10--10-10-10-11--11-11--12-12-12-|
D||------------------------------------------------------------------|


Chorus
      < 3x >
e||-------------|-------------|
B||-------------|-------------|
G||-------------|-------------|
D||-5--7--4--9--|-5--5--7--7--|
A||-5--7--4--9--|-5--5--7--7--|
D||-5--7--4--9--|-5--5--7--7--|



Break

e||--------------------------------|
B||--------------------------------|
G||--------------------------------|
D||--------------------------------|
A||--------------------------------|
D||-0-0-0---1-0-0-1-0-0-0---1-0-0--| x4

e||--------------------------------|
B||--------------------------------|
G||--------------------------------|
D||-0-0-0---1-0-0-1-0-0-0---1-0-0--|
A||-0-0-0---1-0-0-1-0-0-0---1-0-0--|
D||-0-0-0---1-0-0-1-0-0-0---1-0-0--| x8


Chorus
      < 3x >
e||-------------|-------------|
B||-------------|-------------|
G||-------------|-------------|
D||-5--7--4--9--|-5--5--7--7--|
A||-5--7--4--9--|-5--5--7--7--|
D||-5--7--4--9--|-5--5--7--7--|


End with

e||------|
B||------|
G||------|
D||-0----|
A||-0----|
D||-0----|

Tap to rate this tab
 
# A B C D E F G H I J K L M N O P Q R S T U V W X Y Z