Song name
# A B C D E F G H I J K L M N O P Q R S T U V W X Y Z

Madsen - Love Is A Killer tab

Song: Love Is A Killer
Artist: Madsen (feat. Walter Scheifels)
Album: Wo Es Beginnt

Solo starts at (2:09) and stops at (2:30)
e|---------------|--------------|------------|--------------|
B|-8-8-8-11-8----|-3-3-3-6-3----|-1----------|--------------|
G|---------------|--------------|------3--2--|-0-0-0-3-0----|
D|---------------|--------------|------------|--------------|
A|---------------|--------------|------------|--------------|
E|---------------|--------------|------------|--------------|

e|---------------|-------------------|--------------------|-------------------|
B|-8-8-8-11-8----|-15-15-15-18-15----|-13-----------------|-------------------|
G|---------------|-------------------|-------15/17\15-12--|----12/13-13\12----|
D|---------------|-------------------|--------------------|-------------------|
A|---------------|-------------------|--------------------|-------------------|
E|---------------|-------------------|--------------------|-------------------|
Tap to rate this tab
# A B C D E F G H I J K L M N O P Q R S T U V W X Y Z