Song name
# A B C D E F G H I J K L M N O P Q R S T U V W X Y Z

Madsen - Ich Rette Die Welt tab

-------------------------------------------------------------------------------
			     Madsen - Ich rette die Welt
-------------------------------------------------------------------------------
Tabbed by: Daniel
Email: dgoetjen@hotmail.com

Tuning: Standard eBGDAE


Intro und Strophe: G - Bm - Am C - D


Im Intro dann zweimal die Melodie:

e|-------------------------------------------10------------------------------|
B|-12-10-12-10-12---12-10-12-10-12---12-10-12----12-10-12-10-12--------------|
G|---------------------------------------------------------------------------|
D|---------------------------------------------------------------------------|
A|---------------------------------------------------------------------------|
E|---------------------------------------------------------------------------|


e|---------------------------10----------------------------------------------|
B|-12-10-12-10-12---12-10-12----12-10-12-10-12---12-10-12-10-12---12-10-12-10|
G|---------------------------------------------------------------------------|
D|---------------------------------------------------------------------------|
A|---------------------------------------------------------------------------|
E|---------------------------------------------------------------------------|


e|---------------------------------------------------------------------------|
B|---------------------------------------------------------------------------|
G|-11-11-11-11-11-11-11-17b^-16----------------------------------------------|
D|---------------------------------------------------------------------------|
A|---------------------------------------------------------------------------|
E|---------------------------------------------------------------------------|


Refrain: G - Bm - Em - C D

Interlude: Am - Bm - C - Bm D
           Am - Bm - C - Bm C - D

Darüber dann auch wieder die Melodie

Viel Spaß damit!
Tap to rate this tab
# A B C D E F G H I J K L M N O P Q R S T U V W X Y Z