Song name
# A B C D E F G H I J K L M N O P Q R S T U V W X Y Z

Madside - Within Me tab

Hey whats up??? this is the correct tab for this song. I know because i learned it from 
person that wrote it. If you have any questions, email me at kamo52@aol.com

Madside
"Within Me"
2006 EP
Drop C Tuning: (C,G,C,F,A,D)
Written by: (madside) Mike Mathis, Brian Adolfson, Dave Watts, & Ryan Johnson.
You can find this song along with many others at:
    Itunes Music Store  &
    www.myspace.com/madside

Opening Intro/Verses (Clean)
2x for Intro, 4x for verses.

|--------------------------------------------------------------------------|
|--------------------------------------------------------------------------|
|--------------------------------------------------------------------------|
|----12---12---12---15---15---15---10---10---10---12---12p10---10----------|
|--------------------------------------------------------------------------|
|--0----0----0----0----0----0----0----0----0----0----0-------0-------------|

Distortion Intro/Outro
Play W/Distortion 4x for both: Intro/Outro

|------------------------------------|
|------------------------------------|
|------------------------------------|
|----------------------------3--0----|
|----------8-----------7-----3--0----|
|-0-8-10----10-8---7-8---8-7-3--0----|

Pre-Chorus
"Isolated in my head, i can't take it..."

|-------------------------------------------------|
|-------------------------------------------------|
|-------------------------------------------------|
|-5555555555555--XX-X-55555555--------------------|
|-5555555555555--XX-X-55555555-----------8--------|
|-5555555555555--XX-X-55555555----0-8-10---10-8---|

Chorus

|------------------------------------------------------------------------|
|------------------------------------------------------------------------|
|------------------------------------------------------------------------|
|-00-0-0000-000-33-3-3333-333-1010-10-10101010-101010--------------------|
|-00-0-0000-000-33-3-3333-333-1010-10-10101010-101010------------8-1010--|
|-00-0-0000-000-33-3-3333-333-1010-10-10101010-101010-0---0-8-10---------|

Interlude

|------------------------------------|
|------------------------------------|
|------------------------------------|
|------------------------------------|
|-----------8----------------8-1010--|
|-0--0-8-10---10-8-0--0-8-10---------|

Bridge
"Understand Me..."

|------------------------------------------------|
|------5-----------5-----------5-----------------|
|---------5-----------5---5-------5--------------|
|-0--------5--3--------5--5--------5--8----7--3--|
|-0-----------3-----------3-----------8----7--3--|
|-0-----------3-----------------------8----7--3--|

|-------|    |-------|    |-------|  |----------|
|--16X--|    |--16X--|    |--16X--|  |----------|
|-------|    |-------|    |-------|  |----------|
|---0---|    |---3---|    |--10---|  |-8---7-3--|
|---0---|    |---3---|    |--10---|  |-8---7-3--|
|---0---|    |---3---|    |--10---|  |-8---7-3--|

|---------------------------------------------|
|---------------------------------------------|
|---------------------------------------------|
|---------------------------------------------|
|---------8--------------8-1010----------8----|
|-00-8-10----0--0-0-8-10--------0-0-8-10---0--|


Order:

Intro Clean:--------2x
Distortion Intro:---4x
Verse:---------------|4x
Pre-Chorus:----------|1x
Chorus:--------------|2x
Verse:---------------|4x
Pre-Chorus:----------|1x
Chorus:--------------|2x
Interlude:-----------|2x
Bridge:--------------|1x
Chorus:--------------|3x
Outro:---------------|4x
Tap to rate this tab
 
# A B C D E F G H I J K L M N O P Q R S T U V W X Y Z