Song name
# A B C D E F G H I J K L M N O P Q R S T U V W X Y Z

Mae - Telescopes tab

----------------------------------------------------------------------------
			     TELESCOPES - Mae
----------------------------------------------------------------------------

Tabbed by:Spencer Bingol
Email:howidisappear15@gmail.com

Tuning:Standard

Intro/Verse/Interlude:

   F5 F#5 B5         B5
e|-----------------|-----------------|
B|-----------------|-----------------|
G|-------4-4-4-4-4-|-4-4-4-4-4-4-4-4-|
D|-3-3-4-4-4-4-4-4-|-4-4-4-4-4-4-4-4-|
A|-3-3-4-2-2-2-2-2-|-2-2-2-2-2-2-2-2-|
E|-1-1-2-----------|-----------------|
Tap to rate this tab
# A B C D E F G H I J K L M N O P Q R S T U V W X Y Z