Song name
# A B C D E F G H I J K L M N O P Q R S T U V W X Y Z

Mae - Sun tab

-------------------------------------------------------------------------------
			     Sun (Solo) - Mae
-------------------------------------------------------------------------------
Tabbed by: Scott Karoly
Email: theroseparade@gmail.com

Tuning: Standard

(3:02)
e|------------------------------------------|
B|------------------------------------------|
G|-----2-1----------------------------------|
D|---4-----2---4-2-0------------------------|(x4)
A|-----------0-------4h5p4------------------|
E|-2----------------------------------------|


| /  slide up
| \  slide down
| h  hammer-on
| p  pull-off
| ~  vibrato
| +  harmonic
| x  Mute note
===============================================================================
Tap to rate this tab
# A B C D E F G H I J K L M N O P Q R S T U V W X Y Z