Mae - Two Birds tab

-------------------------------------------------------------------------------
			     Two Birds - Mae
-------------------------------------------------------------------------------
Tabbed by: Ricky303
Email: sk8erboy6785@aim.com

Tuning: Standard Capo 2

e|---------------------------------------------------------------------------|
B|--------------2------------------------------------2-----------------------|
G|------2------------2----4p2----4p2-----------2----------2------4/6---------|
D|--0-------0----------------------------0---------0-------------------------|
A|---------------------------------------------------------------------------|
E|---------------------------------------------------------------------------|

e|---------------------------------------------------------------0-----------|
B|------------------2--------------------------------------------------------|
G|---------2-------------2-----4p2-----4p2------------2------------2--1--1h2-|
D|---2----------2---------------------------------2----------2---------------|
A|---------------------------------------------------------------------------|
E|---------------------------------------------------------------------------|

************************************

| /   slide up
| \   slide down
| h   hammer-on
| p   pull-off
| ~   vibrato
| +   harmonic
| x   Mute note
| b   Bend
| pb  Pre-bend
| br  Bend release
| pbr Pre-bend release
| brb Bend release bend

************************************
Tap to rate this tab
 
# A B C D E F G H I J K L M N O P Q R S T U V W X Y Z