Song name
# A B C D E F G H I J K L M N O P Q R S T U V W X Y Z

Mae - Two Birds tab

I didn't make this tab, this guy did:
http://web.ics.purdue.edu/~rarsenau/tabs/artists/mae/mae_home.html , and I thought
it was good, so here. :)

Two Birds
Mae
Half Step Down (Eb Ab Db Gb Bb eb)


First Part:
eb-------0-----------------0-----------0---------0---------------------3-----|
Bb---1-----1-----3p1---1-----1-----3/4---1---1-----1-----3p1-3p1---1-----1---|
Gb---------------------------------------------------------------------------|
Db-3---3-------3-----3---3-------3-------------------------------------------|
Ab-----------------------------------------3---3-------3---------3---3-----3-|
Eb---------------------------------------------------------------------------|

eb----------------|
Bb-0---0h1--------|
Gb---0-----(x4)---|
Db----------------|
Ab----------------|
Eb----------------|

Second Part:
eb-------0---------------------0-----------0---------0---------------------3-|
Bb---1-----1-----3p1-3p1---1-----1-----3/4---1---1-----1-----3p1-3p1---1-----|
Gb---------------------------------------------------------------------------|
Db-3---3-------3---------3---3-------3---------------------------------------|
Ab---------------------------------------------3---3-------3---------3---3---|
Eb---------------------------------------------------------------------------|

eb--------------------|
Bb-1---0---0h1--------|
Gb-------0-----(x4)---|
Db--------------------|
Ab---3----------------|
Eb--------------------|

Ending:
eb--------0---------------------0---------------------0-|
Bb----1-----1-----3p1-3p1---1-----1-----3---------1-----|
Gb------------------------------------------------------|
Db--3---3-------3---------3---3-------3-----------------|
Ab----------------------------------------------3---3---|
Eb------------------------------------------------------|

Enjoy, and check out his website for more.
Tap to rate this tab
 
# A B C D E F G H I J K L M N O P Q R S T U V W X Y Z