Song name
# A B C D E F G H I J K L M N O P Q R S T U V W X Y Z

Mae - Futuro Live tab

Song: Futuro(live)
Artist: Mae
Album: Destination: B-sides

tuning: Standard (EADGBe)

There was not a "Complete tab" of this song on here so I added the keyboard part to the 
bottom of the tab.

0:43
              1st time 2nd time
e|--7-7-5-4--|-4-4----|-7-7--|
B|-5-5-5-5-5-|--5-----|--5---|
G|-----------|--------|------|
D|-----------|--------|------|
A|-----------|--------|------|
E|-----------|--------|------|

1:09

e|--7-7-7---7-7-7-----------|
B|-5-5-5-5-5-5-5-5----------|
G|--------------------------|
D|--------------------------|
A|--------------------------|
E|--------------------------|

1:12

e|--------------------------|
B|--------------------------|
G|-2----4----6----9---------|
D|-2-x8-4-x8-6-x8-9-x8------| x3
A|-0----2----4----7---------|
E|--------------------------|

e|----------------------|
B|----------------------|
G|-2----4----6----------|
D|-2-x8-4-x8-6-x6-------|
A|-0----2----4----------|
E|----------------------|

1:52

e|--7-7-7-------------------|
B|-5-5-5--------------------|
G|--------------------------|
D|--------------------------|
A|--------------------------|
E|--------------------------|

2:06

             1st time 2nd time
e|--7-7-5-4--|-4-4----|-7-7--|
B|-5-5-5-5-5-|--5-----|--5---|
G|-----------|--------|------| listen to song
D|-----------|--------|------|
A|-----------|--------|------|
E|-----------|--------|------|

e|--7-7-7---7-7-7-----------|
B|-5-5-5-5-5-5-5-5----------|
G|--------------------------| listen to song
D|--------------------------|
A|--------------------------|
E|--------------------------|

2:35

e|--------------------------|
B|--------------------------|
G|-2----4----6----9---------|
D|-2-x8-4-x8-6-x8-9-x8------| x3
A|-0----2----4----7---------|
E|--------------------------|

e|--------------------------|
B|--------------------------|
G|-2----4----6----9-----6~--|
D|-2-x8-4-x8-6-x8-9-x8--6~--|
A|-0----2----4----7-----4~--|
E|--------------------------|

The keyboard part transcribed at the breakdown/ Chorus. The best function is a morphing 
effect for the keyboard part.

e|-0-4-0-5-0-7-0-5-0-4-0-5-0-7-0-5-0-4-0-|
B|---------------------------------------|
G|---------------------------------------|
D|---------------------------------------|
A|---------------------------------------|
E|---------------------------------------|

e|-12-0-11-0-7-0-12-0-11-0-7-0-5-0-4-0-5-|
B|---------------------------------------|
G|---------------------------------------|
D|---------------------------------------|
A|---------------------------------------|
E|---------------------------------------|

e|0-7-0-5-0-4-0-5-0-7-0-5-0-4-0-12-0-11-0|
B|---------------------------------------|
G|---------------------------------------|
D|---------------------------------------|
A|---------------------------------------|
E|---------------------------------------|

e|7-0-12-0-11-0-7-0-5-0-17-16-12-14-17-16|
B|---------------------------------------|
G|---------------------------------------|
D|---------------------------------------|
A|---------------------------------------|
E|---------------------------------------|


e|12-11-17-16-12-14-12-|
B|---------------------|
G|---------------------|
D|---------------------|
A|---------------------|
E|---------------------|


Enjoy,
AC
Tap to rate this tab
# A B C D E F G H I J K L M N O P Q R S T U V W X Y Z