Song name
# A B C D E F G H I J K L M N O P Q R S T U V W X Y Z

Mae - Tisbury Lane tab

Help us improve GuitareTab! Take a short survey!
-------------------------------------------------------------------------------
     TISBURY LANE - Mae
-----------------------------------------------------------------------------
--
Tabbed by:James Keller

Tuning:Standard

First tab...but I'm pretty sure this is right. Once you've got the rhythm, kind of mute 
G and D strings after they are plucked like dave does to make it sound better.

Part I
e|--------------------------------------------------------------------------------------------|
B|--------------------------------------------------------------------------------------------|
G|-----9---9-----9---9------4---4----4----4-----2----2----2---2--------4---4------------------| x8
D|-----9---9-----9---9------4---4----4----4-----2----2----2---2--------4---4------------------|
A|----------------------------------------------------------------0h2----2-----3--2--0--------|
E|-0h9---9---0h9---9----0h4---4---0h4---4----0h2---2---0h2---2--------------------------------|

Part II
(The chords change a little bit from 1:34 to 1:55 AND 3:36 to 3:57)...

e|-------------------------------------------------------------------------------------------|
B|-------------------------------------------------------------------------------------------|
G|-----9---9-----9---9-----16----16----16----16----9----9-----9----9-----4-----4-----4----4--|
D|-----9---9-----9---9-----16----16----16----16----9----9-----9----9-----4-----4-----4----4--|
A|-------------------------------------------------------------------------------------------|
E|-0h9---9---0h9---9-----16---16----16----16----0h9---9----0h9---9----0h4---4---0h4----4-----|

e|------------------------------------------------------------------------------------------|
B|------------------------------------------------------------------------------------------|
G|-----9---9-----9---9-----16----16----16----16-----9---9-----9---9------4-----4----4----4--|
D|-----9---9-----9---9-----16----16----16----16-----9---9-----9---9------4-----4----4----4--|
A|------------------------------------------------------------------------------------------|
E|-0h9---9---0h9---9-----16---16----16----16-----0h9---9---0h9---9----0h4----4---0h4---4----|
...Basically, just repeat part one throughout the whole song with some distortion after 4:05.
Related for Tisbury Lane tab