Song name
# A B C D E F G H I J K L M N O P Q R S T U V W X Y Z

Mae - Suspension Acoustic tab

Help us improve GuitareTab! Take a short survey!
Artist: Mae
Song: Suspension Acoustic
Tuning: 1/2 Step Down

This is their acoustic version. Listen to the song to figure out the exact pattern I tried
to put the chords in the right spot. Be careful because of how he sings it some chords switch
faster than the tab presents but you will figure it out listening to the song. It is not 100%
accurate, he varies a little bit, but it is close. This is my first tab so don't judge 
too harshly. Please leave some feedback for me. Enjoy...

Intro:
eb----0----0--0----0--0----0----0--|
Bb----0----0--0----0--0----0----0--|
Gb----9----8--9----8--9----8----9--|
Db----9----9--9----9--9----9----9--|
Ab----7----9--7----9--x----9----7--|
Eb----7----7--7----7--9----7----7--|

Verse:
eb----0---------------------------------------------|
Bb----0---------------------------------------------|
Gb----9---------------------------------------------|
Db----9---------------------------------------------|
Ab----7---------------------------------------------|
Eb----7---------------------------------------------|
  lately i'm alright and lately i'm not scared

eb------0-------0--------------------------0----------|
Bb------0-------0--------------------------0----------|
Gb------8-------9--------------------------8----------|
Db------9-------9--------------------------9----------|
Ab------9-------0--------------------------9----------|
Eb------7-------9--------------------------7----------|
  i've figured out that what you do to me feels like

eb-------------------0------------------------------|
Bb-------------------0------------------------------|
Gb-------------------9------------------------------|
Db-------------------9------------------------------|
Ab-------------------0------------------------------|
Eb-------------------x------------------------------|
  i'm floating on air i don't need to know right now

eb--------------------------------------0--------0--|
Bb--------------------------------------0--------0--|
Gb--------------------------------------9--------8--|
Db--------------------------------------9--------9--|
Ab--------------------------------------x--------9--|
Eb--------------------------------------9--------7--|
  i don't need to know right now all i know is i believe

eb-0-----------------------------------0---------0----0-----0-|
Bb-0-----------------------------------0---------0----0-----0-|
Gb-9-----------------------------------9---------9----9-----9-|
Db-9-----------------------------------9---------9----9-----9-|
Ab-0-----------------------------------x---------7----x-----6-|
Eb-x-----------------------------------9---------7----9-----6-|
  in the very thing that got us here now i cant leave

Chorus 1:
eb-0-------0--------------0----0---------------0----------------|
Bb-0-------0--------------0----0---------------0----------------|
Gb-9-------9--------------8----9---------------9----------------|
Db-9-------9--------------9----9---------------9----------------|
Ab-7-------0--------------9----x---------------7----------------|
Eb-7-------x--------------7----9---------------7----------------|
  say anything but say what you mean cause im caugut in suspension

Break:
eb----x--x--x--x--x--x--x----------|
Bb----x--x--x--x--x--x--x----------|
Gb----2--4--6--8--8--9--9----------|
Db----2--4--6--8--8--9--9----------|
Ab----0--2--4--6--6--7--7----------|
Eb----x--x--x--x--x--x--x----------|

Verse:
eb-0-----------------------0----------------------0-----0--------|
Bb-0-----------------------0----------------------0-----0--------|
Gb-9-----------------------8----------------------8-----9--------|
Db-9-----------------------9----------------------9-----9--------|
Ab-7-----------------------9----------------------9-----x--------|
Eb-7-----------------------x----------------------7-----9--------|
  now i'm wanting this for sure and ill beg for nothing more

eb-0----------------------0----------------------------------0--|
Bb-0----------------------0----------------------------------0--|
Gb-9----------------------9----------------------------------9--|
Db-9----------------------9----------------------------------9--|
Ab-0----------------------7----------------------------------0--|
Eb-x----------------------7----------------------------------x--|
  i'll plan all day and drive all night you'll love whats in store

eb------------------------------------0-------0--------0-|
Bb------------------------------------0-------0--------0-|
Gb------------------------------------9-------8--------9-|
Db------------------------------------9-------9--------9-|
Ab------------------------------------x-------9--------0-|
Eb------------------------------------9-------7--------x-|
  i cant seem to stop this now even if its not so clear

eb--------------------------------0--------0-------|
Bb--------------------------------0--------0-------|
Gb--------------------------------9--------8-------|
Db--------------------------------9--------9-------|
Ab--------------------------------x--------9-------|
Eb--------------------------------9--------7-------|
  and i'll take what i can get if you want me here

Chorus 2:
eb-0-0--0--0--------------0----0----|
Bb-0-0--0--0--------------0----0----|
Gb-9-11-9--9--------------8----9----|
Db-9-9--9--9--------------9----9----|
Ab-7-7--7--0--------------9----x----|
Eb-7-7--7--x--------------7----9----|
  say anything but say what you mean

eb---------0---------------------0----------------------x--x-|
Bb---------0---------------------0----------------------x--x-|
Gb---------9---------------------9----------------------4--4-|
Db---------9---------------------9----------------------4--4-|
Ab---------7---------------------0----------------------2--2-|
Eb---------7---------------------x----------------------x--x-|
  when you whisper you want this your eyes tell the same

eb-0-0--0--0-------------------0----0------|
Bb-0-0--0--0-------------------0----0------|
Gb-9-11-9--9-------------------8----9------|
Db-9-9--9--9-------------------9----9------|
Ab-7-7--7--0-------------------9----x------|
Eb-7-7--7--x-------------------7----9------|
  we are gaining speed i can barley breathe

eb--0--------------------------|
Bb--0--------------------------|
Gb--9--------------------------|
Db--9--------------------------|
Ab--7--------------------------|
Eb--7--------------------------|
  cause i'm caught in suspension

Break:
eb----x--x--x--x--x--x--x----------|
Bb----x--x--x--x--x--x--x----------|
Gb----2--4--6--8--8--9--9----------|X2
Db----2--4--6--8--8--9--9----------|
Ab----0--2--4--6--6--7--7----------|
Eb----x--x--x--x--x--x--x----------|


interlude:
eb-x--------------0---------------0-|
Bb-x--------------0---------------0-|
Gb-4--------------9---------------2-|
Db-4--------------9---------------2-|
Ab-2--------------7---------------0-|
Eb-x--------------7---------------0-|
  its enough for me to get excited

eb------------------------------0----0---0-------|
Bb------------------------------0----0---0-------|
Gb------------------------------9----8---9-------|
Db------------------------------9----9---9-------|
Ab------------------------------x----9---x-------|
Eb------------------------------9----7---9-------|
  its enough for me to feel... woah

eb--0--------0----0----0----0--0--0--0--0--0--0--|
Bb--0--------0----0----0----0--0--0--0--0--0--0--|
Gb--9--------8----9----8----2--9--2--9--4--9--8--|
Db--9--------9----9----9----2--9--2--9--4--9--9--|
Ab--7--------9----x----9----0--0--0--0--x--x--9--|
Eb--7--------7----9----x----x--x--x--x--4--9--x--|


eb-0-0--0--0--------------0----0----|
Bb-0-0--0--0--------------0----0----|
Gb-9-11-9--9--------------8----9----|
Db-9-9--9--9--------------9----9----|
Ab-7-7--7--0--------------9----x----|
Eb-7-7--7--x--------------7----9----|
  say anything but say what you mean

eb---------0---------------------0---------------------|
Bb---------0---------------------0---------------------|
Gb---------9---------------------9---------------------|
Db---------9---------------------9---------------------|
Ab---------7---------------------0---------------------|
Eb---------7---------------------x---------------------|
  when you whisper you want this your eyes tell the

eb-0-0--0--0-------------------0----0------|
Bb-0-0--0--0-------------------0----0------|
Gb-9-11-9--9-------------------8----9------|
Db-9-9--9--9-------------------9----9------|
Ab-7-7--7--0-------------------9----x------|
Eb-7-7--7--x-------------------7----9------|
  we are gaining speed i can barley breathe

eb--0--------------------------0-----0----------x--x---|
Bb--0--------------------------0-----0----------x--x---|
Gb--9--------------------------2-----9----------4--x---|
Db--9--------------------------2-----9----------4--4---|
Ab--7--------------------------0-----0----------2--4---|
Eb--7--------------------------x-----x----------x--2---|
  cause im caught in suspension i'm caught in suspension


eb-0-0--0--0--------------0----0----|
Bb-0-0--0--0--------------0----0----|
Gb-9-11-9--9--------------8----9----|
Db-9-9--9--9--------------9----9----|
Ab-7-7--7--0--------------9----x----|
Eb-7-7--7--x--------------7----9----|
  say anything but say what you mean

eb--0------------------0----------0-----0----------x--x---|
Bb--0------------------0----------0-----0----------x--x---|
Gb--9------------------9----------2-----9----------4--x---|
Db--9------------------9----------2-----9----------4--4---|
Ab--7------------------0----------0-----0----------2--4---|
Eb--7------------------x----------x-----x----------x--2---|
  i'm caught in suspension i'm caught in suspension

eb-0-0--0--0-------------------0----0------|
Bb-0-0--0--0-------------------0----0------|
Gb-9-11-9--9-------------------8----9------|
Db-9-9--9--9-------------------9----9------|
Ab-7-7--7--0-------------------9----x------|
Eb-7-7--7--x-------------------7----9------|
  we are gaining speed i can barley breathe

eb--0----------------------0-------x--x-----------------|
Bb--0----------------------0-------x--x-----------------|
Gb--9----------------------2-------4--x-----------------|
Db--9----------------------2-------4--4-----------------|
Ab--7----------------------0-------2--4-----------------|
Eb--7----------------------x-------x--2-----------------|
  cause i'm caught in suspension i'm caught in suspension

eb-0-0--0--0--------------0----0----|
Bb-0-0--0--0--------------0----0----|
Gb-9-11-9--9--------------8----9----|
Db-9-9--9--9--------------9----9----|
Ab-7-7--7--0--------------9----x----|
Eb-7-7--7--x--------------7----9----|
  say anything but say what you mean

eb--0--------------------|
Bb--0--------------------|
Gb--9--------------------|
Db--9--------------------|
Ab--7--------------------|
Eb--7--------------------|
  i'm caught in suspension

Break:
eb----x--x--x--x--x--x--x----------|
Bb----x--x--x--x--x--x--x----------|
Gb----2--4--6--8--8--9--9----------|X2
Db----2--4--6--8--8--9--9----------|
Ab----0--2--4--6--6--7--7----------|
Eb----x--x--x--x--x--x--x----------|

End on
eb--0--|
Bb--0--|
Gb--9--|
Db--9--|
Ab--0--|
Eb--x--|
Related for Suspension Acoustic tab