Song name
# A B C D E F G H I J K L M N O P Q R S T U V W X Y Z

Mae - Futuro Live tab

Song: Futuro(live)
Artist: Mae
Album: Destination: B-sides

tuning: Standard (EADGBe)

this song is easy but sounds empty without keyboard or drums.

0:43
              1st time 2nd time
e|--7-7-5-4--|-4-4----|-7-7--|
B|-5-5-5-5-5-|--5-----|--5---|
G|-----------|--------|------| 
D|-----------|--------|------|
A|-----------|--------|------|
E|-----------|--------|------|

1:09

e|--7-7-7---7-7-7-----------|
B|-5-5-5-5-5-5-5-5----------|
G|--------------------------| 
D|--------------------------| 
A|--------------------------|
E|--------------------------|

1:12

e|--------------------------|
B|--------------------------|
G|-2----4----6----8---------|
D|-2-x8-4-x8-6-x8-8-x8------| x3
A|-0----2----4----6---------|
E|--------------------------|

e|----------------------|
B|----------------------|
G|-2----4----6----------|  listen for the
D|-2-x8-4-x8-6-x6-------|  timing of the 3rd chord
A|-0----2----4----------|
E|----------------------|

1:52

e|--7-7-7-------------------|
B|-5-5-5--------------------|
G|--------------------------|
D|--------------------------|
A|--------------------------|
E|--------------------------|

2:06

             1st time 2nd time
e|--7-7-5-4--|-4-4----|-7-7--|
B|-5-5-5-5-5-|--5-----|--5---|
G|-----------|--------|------| listen to song
D|-----------|--------|------|
A|-----------|--------|------|
E|-----------|--------|------|

e|--7-7-7---7-7-7-----------|
B|-5-5-5-5-5-5-5-5----------|
G|--------------------------| listen to song
D|--------------------------| 
A|--------------------------|
E|--------------------------|

2:35

e|--------------------------|
B|--------------------------|
G|-2----4----6----8---------|
D|-2-x8-4-x8-6-x8-8-x8------| x3
A|-0----2----4----6---------|
E|--------------------------|

e|--------------------------|
B|--------------------------|
G|-2----4----6----8-----6~--|
D|-2-x8-4-x8-6-x8-8-x8--6~--| 
A|-0----2----4----6-----4~--|
E|--------------------------|


Thats it, easy song.

anything, Email: magnificent_adroitness@hotmail.com

maximo

Tap to rate this tab
 
# A B C D E F G H I J K L M N O P Q R S T U V W X Y Z