Guitaretab - guitar tabs
Song name
# A B C D E F G H I J K L M N O P Q R S T U V W X Y Z

Mael Mordha - Winds Of One Thousand Winters tab

Tabbed by:Mike Clendenen(syke5)

Email:theirishgiant@gmail.com

Website:http://www.mael-mordha.com/

Tuning:Standard(half-step down is actual song is played but it sounds better standard)

My favorite Irish Metal Band Mael Mordha

intro to Winds of One Thousand Winters

http://www.youtube.com/watch?v=PyDRGfwmDUs(winds of one thousand winters video)

Clouds darken and dampen My spirit
As My brow bows low
While My eyes see only earth,
The engraining of furrows on My soul.

Feels as though the winds of
One thousand winters
Have hacked away whatever life existed
Within My now battered link
To the world of Donn.

He calls -
But not for Me to follow.
He calls out -
Storms of support for My cause
He calls out storms -
Which feed But dying embers
That grow slowly from the ash
Which had threatened to engulf
And rise -
Rise to flames
Which burn -
Which burn the dead wood.

Onward, yes onward comes the
Bellowing cries
Which resounds through the hills
As the stag roars in triumph.
Once again he will rise, a Rн of the South,
And with him will rise the hope of the Gael.

Embrace the new with purpose and vigour
Revive the old and condemn Gall Glassa.

Lead
                       (play 3 times)
e|-----------------|----------------|---------------|----------------|-----------------|
B|-----------------|----------------|---------------|----------------|---------5/6---8-|
G|-----------------|----5-----5---5-|--7-5---7-5---7|-8-7-5-7-7------|-8-7-5-7-----7---|
D|-8-7-5-8-7-5-5-8-|7-8---7-8---7---|8-----8-----8--|-----------8-7-8|-----------------|
A|-----------------|----------------|---------------|----------------|-----------------|
E|-----------------|----------------|---------------|----------------|-----------------|
play at the end on the third time you play it
e|-----------------|----------------|
B|-----------------|----------------|
G|------------5/6--|--8-------------|
D|8-7-5-7-8-7------|7---------------|
A|-----------------|----------------|
E|-----------------|----------------|

[ Tab from: http://www.guitaretab.com/m/mael-mordha/118145.html ]
Rhythm                   (play 2 times)
e|-----------------|----------------|---------------|----------------|-----------------|
B|-----------------|----------------|---------------|----------------|-----------------|
G|-----------------|8~--------------|8~-------------|-8~-------------|-10~-----5~------|
D|-5~--------------|8~--------------|8~-------------|-8~-------------|-10~-----3~------|
A|-3~--------------|6~--------------|5~-------------|-6~-------------|--8~-----3~------|
E|-3~--------------|----------------|---------------|----------------|-----------------|
                         (play on the third time through)
e|-----------------|----------------|---------------|----------------|-----------------|
B|-----------------|----------------|---------------|----------------|-----------------|
G|-----------------|8~--------------|8~-------------|8~--------------|-5~------5~------|
D|-5~--------------|8~--------------|8~-------------|8~--------------|-5~------3~------|
A|-3~--------------|6~--------------|5~-------------|6~--------------|-3~------3~------|
E|-3~--------------|----------------|---------------|----------------|-----------------|

Lead
(alternate pick on palm mutes)
e|-----(3-3)----(3-3-3)------(3-3)-----(3-3-3)------(3-3)-----(3-3-3)------------------|
B|---5--------6----------5-5---------6----------5-5--------6----------5----------------|
G|-------------------------------------------------------------------------------------|
D|-------------------------------------------------------------------------------------|
A|-------------------------------------------------------------------------------------|
E|-------------------------------------------------------------------------------------|
Rhythm
(alternate pick on palm mutes)
e|-----(3-3)----(3-3-3)------(3-3)-----(3-3-3)------(3-3)-----(3-3-3)------------------|
B|---5--------6----------5-5---------6----------5-5--------6----------5----------------|
G|-------------------------------------------------------------------------------------|
D|-------------------------------------------------------------------------------------|
A|-------------------------------------------------------------------------------------|
E|-------------------------------------------------------------------------------------|
Rhythm (lead takes a break)
e|---------------------------------------------------------------------------------------|
B|---------------------------------------------------------------------------------------|
G|-5~-----------5*-----------8~-----------10~-----------7~-------------------------------|
D|-5~-----------5*-----------8~-----------10~-----------7~-------------------------------|
A|-3~333333333--3*333333333--6~666666666--8~-888888888--5~777777777----------------------|
E|---------------------------------------------------------------------------------------|
     (Palm mute all the ones hooked together like this 333333333)
e|---------------------------------------------------------------------------------------|
B|---------------------------------------------------------------------------------------|
G|-5~-----------5*-----------8~-----------10-----------5~-----------5~-------------------|
D|-5~-----------5*-----------8~-----------10-----------5~-----------5~-------------------|
A|-3~333333333--3*333333333--6~666666666--8-888888888--3~333333333--3~333333333----------|
E|---------------------------------------------------------------------------------------|

(now there are some note movements in the bottom 2 riffs but i was having trouble
with the text editor and this is all i could fit so ill fix it later)

| /  slide up
| \  slide down
| h  hammer-on
| p  pull-off
| ~  let ring
| +  harmonic
| x  mute note
| *  choke note or chord
Related for Winds Of One Thousand Winters tab