Song name
# A B C D E F G H I J K L M N O P Q R S T U V W X Y Z

Mael Mordha - Manannan tab

-------------------------------------------------------------------------------
			     Manannan - Mael Mordha
-------------------------------------------------------------------------------
Tabbed by: Fendermaster
E-mail:joemickkelly@yahoo.com

This is by no means a correct tab, the only thing I'm really certain is correct 
is the intro, everything else here should be taken with a grain of salt. 
I'm not even certain what the tuning is for this, but the intro at least
can be played in standard, reminds me a bit of the Chop Suey intro from SOAD.
I included the rest of the tab mainly to give a rough idea for anyone else who'd 
like to build upon it. I may come back to this at some point and try to polish up 
the rest of the song, but would welcome anyone else's constructive criticism!

Tuning:Standard 

Acoustic guitar
Intro 1 x 4
e|---------------------------------------------------------------------------|
B|---------------------------------------------------------------------------|
G|---------------------------------------------------------------------------|
D|-5--5-5-5-5--5-5-5-7--7-7-7-7--7-7-7-9---9--9--9--9---9--9--9--9-----------|
A|-7--7-7-7-7--7-7-7-9--9-9-9-9--9-9-9-10--10-10-10-10--10-10-10-10----------|
E|-0--0-0-0-0--0-0-0-0--0-0-0-0--0-0-0-0---0--0--0--0---0--0--0--0-----------|

Acoustic guitar
Intro 2 
Play x 3, then on the third time play part in brackets

e|---------------------------------------------------------------------------|
B|---------------------------------------------------------------------------|
G|---------------------------------------------------------------------------|
D|-10--10-10-10---9---9--9--9----7--7-7-7---5--5-5-5--4-(-4-4-4--5--5-5-5-)--|
A|-12--12-12-12---10--10-10-10---9--9-9-9---7--7-7-7--5-(-5-5-5--7--7-7-7-)--|
E|-0---0--0--0----0---0--0--0----0--0-0-0---0--0-0-0--0-(-0-0-0--0--0-0-0-)--|

Verse 1
x2
   x8    x8    x16    x8    x8   x16   
e|---------------------------------------------------------------------------|
B|---------------------------------------------------------------------------|
G|-12----14----16------12---14---16------------------------------------------|
D|-x-----x-----x-------x----x----x-------------------------------------------|
A|-10----12----14------10---12---14------------------------------------------|
E|---------------------------------------------------------------------------|


Bridge (play twice, the the second time play the part in brackets)


   x4    x4    x4    x4    x4     x4    x4    x4    x4    x4
e|---------------------------------------------------------------------------|
B|---------------------------------------------------------------------------|
G|-17----16----14----16----17-----16----14----12----11-----12----------------|
D|-x-----x-----x-----x-----x------x-----x-----x-----x-------x----------------|
A|-15----14----12----14----15-----14----12----10----9------10----------------|
E|---------------------------------------------------------------------------|


Verse 2. Same as Verse 1, but this time power chords play under the octave chords.
Rhythm is the same, just straight 8th notes. (not 100% sure on this part)

e|---------------------------------------------------------------------------|
B|---------------------------------------------------------------------------|
G|---------------------------------------------------------------------------|
D|-5--7--9---5--7--10--9---12--10--9--7--10--9--7--5--4--5-------------------|
A|-5--7--9---5--7--10--9---12--10--9--7--10--9--7--5--4--5-------------------|
E|-3--5--7---3--5--8---7---10--8---7--5--8---7--5--3--2--3-------------------|

Chorus. I supect the guitar may be in Drop C or lower here, but if you play 
in Drop D you can get most of, with the exception of the palm muted last
Chord ("solely for purchase of profit and power"). Rhythm is again quite 
simple, so best to listen to the recording. This is just the chords, not 
the rhythm.

e|---------------------------------------------------------------------------|
B|---------------------------------------------------------------------------|
G|---------------------------------------------------------------------------|
D|-5--4--0--2--5--4--0--2--5--7--9--9-9-5-7--7-7-5-2--5-5-4-0----------------|
A|-5--4--0--2--5--4--0--2--5--7--9--9-9-5-7--7-7-5-2--5-5-4-0----------------|
D|-5--4--0--2--5--4--0--2--5--7--9--9-9-5-7--7-7-5-2--5-5-4-0----------------|



************************************

| /   slide up
| \   slide down
| h   hammer-on
| p   pull-off
| ~   vibrato
| +   harmonic
| x   Mute note
| b   Bend
| pb  Pre-bend
| br  Bend release
| pbr Pre-bend release
| brb Bend release bend

************************************
Tap to rate this tab
# A B C D E F G H I J K L M N O P Q R S T U V W X Y Z