Song name
# A B C D E F G H I J K L M N O P Q R S T U V W X Y Z

Maes Lost Empire - Sunday tab

Song: Sunday
Band: Mae's Lost Empire
Tuning: Drop D
email: synystersixx@gmail.com

not quite finished yet but i will be soon.

E|-1111--0000--1111--0000--111100003333--0000--3333--0000--33330000-|
B|-3333--3333--3333--3333--333333336666--6666--6666--6666--66666666-|
G|-2222--2222--2222--2222--222222225555--5555--5555--5555--55555555-|
D|------------------------------------------------------------------|
A|------------------------------------------------------------------|
D|------------------------------------------------------------------|


E|-1111--0000--1111--0000--111100003333--0000--3~-|
B|-3333--3333--3333--3333--333333336666--6666--6~-|
G|-2222--2222--2222--2222--222222225555--5555--5~-|
D|------------------------------------------------|
A|------------------------------------------------|
D|------------------------------------------------|

E|--1-1-1-1----0-0-0-0----1-1-1-1----0-0-0-0----1-1-1-1-0-0-0-0-|
B|--3-3-3-3----3-3-3-3----3-3-3-3----3-3-3-3----3-3-3-3-3-3-3-3-|
G|--2-2-2-2----2-2-2-2----2-2-2-2----2-2-2-2----2-2-2-2-2-2-2-2-|
D|--0-0-0-0----0-0-0-0----0-0-0-0----0-0-0-0----0-0-0-0-0-0-0-0-|
A|--0-0-0-0----0-0-0-0----0-0-0-0----0-0-0-0----0-0-0-0-0-0-0-0-|
D|--0-0-0-0----0-0-0-0----0-0-0-0----0-0-0-0----0-0-0-0-0-0-0-0-|

E|------------------------------------------------------------------|
B|--8-8-8-8-----8-8-8-8-----8-8-8-8-----8-8-8-8-----8-8-8-8-8-8-8-8-|
G|-10101010-----9-9-9-9----10101010-----9-9-9-9----10101010-9-9-9-9-|
D|-10101010----10101010----10101010----10101010----1010101010101010-|
A|--8-8-8-8-----8-8-8-8-----8-8-8-8-----8-8-8-8-----8-8-8-8-8-8-8-8-|
D|--8-8-8-8-----8-8-8-8-----8-8-8-8-----8-8-8-8-----8-8-8-8-8-8-8-8-|

E|--1-1-1-1----0-0-0-0----1-1-1-1----0-0-0-0----1-1-1-1-0-0-0-0-|
B|--3-3-3-3----3-3-3-3----3-3-3-3----3-3-3-3----3-3-3-3-3-3-3-3-|
G|--2-2-2-2----2-2-2-2----2-2-2-2----2-2-2-2----2-2-2-2-2-2-2-2-|
D|--0-0-0-0----0-0-0-0----0-0-0-0----0-0-0-0----0-0-0-0-0-0-0-0-|
A|--0-0-0-0----0-0-0-0----0-0-0-0----0-0-0-0----0-0-0-0-0-0-0-0-|
D|--0-0-0-0----0-0-0-0----0-0-0-0----0-0-0-0----0-0-0-0-0-0-0-0-|

E|---------------------------------------------------|
B|--8-8-8-8-----8-8-8-8----8-8-8-8----5-5-5-5----5-5-|
G|-10101010-----9-9-9-9----7-7-7-7----5-5-5-5----5-5-|
D|-10101010----10101010----5-5-5-5----5-5-5-5----5-5-|
A|--8-8-8-8-----8-8-8-8----5-5-5-5----5-5-5-5----5-5-|
D|--8-8-8-8-----8-8-8-8----5-5-5-5----5-5-5-5----5-5-|


E|--1-1-1-1----0-0-0-0----1-1-1-1----0-0-0-0----1-1-1-1-0-0-0-0-|
B|--3-3-3-3----3-3-3-3----3-3-3-3----3-3-3-3----3-3-3-3-3-3-3-3-|
G|--2-2-2-2----2-2-2-2----2-2-2-2----2-2-2-2----2-2-2-2-2-2-2-2-|
D|--0-0-0-0----0-0-0-0----0-0-0-0----0-0-0-0----0-0-0-0-0-0-0-0-|
A|--0-0-0-0----0-0-0-0----0-0-0-0----0-0-0-0----0-0-0-0-0-0-0-0-|
D|--0-0-0-0----0-0-0-0----0-0-0-0----0-0-0-0----0-0-0-0-0-0-0-0-|


E|------------------------------------------------------------------|
B|--8-8-8-8-----8-8-8-8-----8-8-8-8-----8-8-8-8-----8-8-8-8-8-8-8-8-|
G|-10101010-----9-9-9-9----10101010-----9-9-9-9----10101010-9-9-9-9-|
D|-10101010----10101010----10101010----10101010----1010101010101010-|
A|--8-8-8-8-----8-8-8-8-----8-8-8-8-----8-8-8-8-----8-8-8-8-8-8-8-8-|
D|--8-8-8-8-----8-8-8-8-----8-8-8-8-----8-8-8-8-----8-8-8-8-8-8-8-8-|

E|--1-1-1-1----0-0-0-0----1-1-1-1----0-0-0-0----1-1-1-1-0-0-0-0-|
B|--3-3-3-3----3-3-3-3----3-3-3-3----3-3-3-3----3-3-3-3-3-3-3-3-|
G|--2-2-2-2----2-2-2-2----2-2-2-2----2-2-2-2----2-2-2-2-2-2-2-2-|
D|--0-0-0-0----0-0-0-0----0-0-0-0----0-0-0-0----0-0-0-0-0-0-0-0-|
A|--0-0-0-0----0-0-0-0----0-0-0-0----0-0-0-0----0-0-0-0-0-0-0-0-|
D|--0-0-0-0----0-0-0-0----0-0-0-0----0-0-0-0----0-0-0-0-0-0-0-0-|


E|----------------------------------------------------|
B|--8-8-8-8-----8-8-8-8----8-8-8-8----5-5-5-5----5-5~-|
G|-10101010-----9-9-9-9----7-7-7-7----5-5-5-5----5-5~-|
D|-10101010----10101010----5-5-5-5----5-5-5-5----5-5~-|
A|--8-8-8-8-----8-8-8-8----5-5-5-5----5-5-5-5----5-5~-|
D|--8-8-8-8-----8-8-8-8----5-5-5-5----5-5-5-5----5-5~-|
        
       T      T     T      T     T       T      T      T    T    T   T
E|-----------------------------------------------------------------------|
B|-----------------------------------------------------------------------|
G|-3-5-9-3-5-10-3-5-9-3-5-10-3-5-9-5-3-5-9-3-5-10-3-5-14-5-12-5-10-5-9-5-|
D|--h-h-p-h-h--p-h-h-p-h-h--p-h-h-p-p-h-h-p-h-h--p-h-h--p-h--p-h--p-h-p--|
A|-----------------------------------------------------------------------|
D|-----------------------------------------------------------------------|


       T      T     T      T     T       T      T      T    T    T   T
E|-----------------------------------------------------------------------|
B|-----------------------------------------------------------------------|
G|-2-5-9-2-5-10-2-5-9-2-5-10-2-5-9-5-2-5-9-2-5-10-2-5-14-5-12-5-10-5-9-5-|
D|--h-h-p-h-h--p-h-h-p-h-h--p-h-h-p-p-h-h-p-h-h--p-h-h--p-h--p-h--p-h-p--|
A|-----------------------------------------------------------------------|
D|-----------------------------------------------------------------------|

play above 2 bars twice

       T      T     T      T     T       T      T      T    T    T   T
E|----------------------------------------------------------------------------|
B|----------------------------------------------------------------------------|
G|-3-5--9-3-5-10-3-5--9-3-5-10-3-5--9-5-3-5--9-3-5-10-3-5-14-5-12-5-10-5--9-5-|
D|--h--h-p-h-h--p-h--h-p-h-h--p-h--h-p-p-h--h-p-h-h--p-h-h--p-h--p-h--p-h--p--|
A|----------------------------------------------------------------------------|
D|----------------------------------------------------------------------------|   
 |    T      T      T      T      T        T      T      T    T    T   T      | 
E|----------------------------------------------------------------------------|
B|----------------------------------------------------------------------------|
G|-3-5-12-3-5-14-3-5-12-3-5-14-3-5-12-5-3-5-12-3-5-14-3-5-17-5-15-5-14-5-12-5-|
D|--h-h--p-h-h--p-h-h--p-h-h--p-h-h--p-p-h-h--p-h-h--p-h-h--p-h--p-h--p-h--p--|
A|----------------------------------------------------------------------------|
D|----------------------------------------------------------------------------|


       T      T     T      T     T       T      T      T    T    T   T
E|----------------------------------------------------------------------------|
B|----------------------------------------------------------------------------|
G|-2-5--9-2-5-10-2-5--9-2-5-10-2-5--9-5-2-5--9-2-5-10-2-5-14-5-12-5-10-5--9-5-|
D|--h--h-p-h-h--p-h--h-p-h-h--p-h--h-p-p-h--h-p-h-h--p-h-h--p-h--p-h--p-h--p--|
A|----------------------------------------------------------------------------|
D|----------------------------------------------------------------------------|   
 |    T      T      T      T      T        T      T      T    T    T   T      | 
E|----------------------------------------------------------------------------|
B|----------------------------------------------------------------------------|
G|-2-5-12-2-5-14-2-5-12-2-5-14-2-5-12-5-2-5-12-2-5-14-2-5-17-5-15-5-14-5-12-5-|
D|--h-h--p-h-h--p-h-h--p-h-h--p-h-h--p-p-h-h--p-h-h--p-h-h--p-h--p-h--p-h--p--|
A|----------------------------------------------------------------------------|
D|----------------------------------------------------------------------------|

play above 2 bars twice

E|-----------|
B|-----------|
G|-----------|
D|-8~--5~-7~-|
A|-8~--5~-7~-|
D|-8~--5~-7~-|
Tap to rate this tab
 
# A B C D E F G H I J K L M N O P Q R S T U V W X Y Z