Song name
# A B C D E F G H I J K L M N O P Q R S T U V W X Y Z

Magazine - Rhythm Of Cruelty tab

SONG NAME- Rhythm of Cruelty - Band Name- Magazine
Album- Second Hand Daylight
-----------------------------------------------------------------
Tabbed by:frazer h
Email:frazer.hughes@gmail.com

Tuning:EADGBe

Guitar by the GREAT John McGeoch, some of the parts are synth parts
tabbed for guitar (synth played by dave formula) enjoy! 
comments/questions/suggestions/corrections email me :)

e|--12-12-12-----------------------------------------------------|
B|----------12/14------12-12-12----------------------------------|
G|------------------------------14-------------------------------|
D|----------------14---------------------------------------------| X2
A|---------------------------------12/14-------------------------|
E|---------------------------------------12----------------------|

e|---------------------------------------------------------------|
B|---------------------------------------------------------------|
G|----------------------------------11-12-14---------------------|
D|------------------11-11--11-12-14-0--0--0--11-12-14------------| X2
A|-11-11--11-12-14--0--0---0--0--0-----------0--0--0--11---------|
E|-0--0---0--0--0-------------------------------------0----------|

e|---------------------------------------------------------------|
B|---------------------------------------------------------------|
G|---------------------------------------------------------------|
D|-----------------------------------------------------9--9-10---|
A|----------5---------5--------3--3-4-6-4-7--7-8--10-11----------|
E|-0-2--0-2---0-2--0-2---2--4-5----------------------------------|

e|--------------------------------------------17--18-20-18-21b^--|
B|--------------------------------15--16-18-19-------------------|
G|--------------------15--16-18-16-------------------------------|
D|-12-10-13--14--16-17-------------------------------------------|
A|---------------------------------------------------------------|
E|---------------------------------------------------------------|

e|--12-12-12-----------------------------------------------------|
B|----------12/14------12-12-12----------------------------------|
G|------------------------------14-------------------------------|
D|----------------14---------------------------------------------| X2
A|---------------------------------12/14-------------------------|
E|---------------------------------------12----------------------|

e|---------------------------------------------------------------|
B|---------------------------------------------------------------|
G|----------------------------------11-12-14---------------------|
D|------------------11-11--11-12-14-0--0--0--11-12-14------------| X2
A|-11-11--11-12-14--0--0---0--0--0-----------0--0--0--11---------|
E|-0--0---0--0--0-------------------------------------0----------|

e|---------------------------------------------------------------|
B|---------------------------------------------------------------|
G|---------------------------------------------------------------|
D|---------------------------------------------------------------|
A|----------5----------5-----------------------------------------|
E|-0-2--0-2---0-2--0-2-------------------------------------------|

e|-19-17-16--14-16-17--------------------------------------------|
B|--------------------13-14-16-----------------------------------|
G|-----------------------------13-14-16--------------------------|
D|---------------------------------------------------------------| X4
A|----------------------------------------5--0-------------------|
E|---------------------------------------------0-----------------|

| /  slide up
| \  slide down
| h  hammer-on
| p  pull-off
| ~  vibrato
| +  harmonic
| x  Mute note
Tap to rate this tab
 
# A B C D E F G H I J K L M N O P Q R S T U V W X Y Z