Song name
# A B C D E F G H I J K L M N O P Q R S T U V W X Y Z

Magdallan - Radio Bikini tab

                   Radio Bikini - Magdallan (Brian Bromberg)
                   ~~~~~~~~~~~~~~~~~~~~~~~~~~~~~~~~~~~~~~~~~
                        transcribed by Robert G. Hoover
intro:
       1 + 2 + 3 + 4 +  1 + 2 + 3 + 4 +  1 + 2 + 3 + 4 +  1 + 2 + 3 + 4 +
G |_| |----------------|----------------|----------------|----------------|
D   | |----------------|----------------|----------------|------0-1-0-----|
A     |3-3-------------|3-3-------------|3-3-------------|3-1-3-------3-1-|
E |_| |----------------|----------------|----------------|----------------|
B   | |----------------|----------------|----------------|----------------|

       1 + 2 + 3 + 4 +  1 + 2 + 3 + 4 +  1 + 2 + 3 + 4 +  1 + 2 + 3 + 4 +
C     |----------------|----------------|----------------|----------------|
G |_| |----------------|----------------|----------------|----------------|
D   | |----------------|----------------|----------------|----------------|
A     |----------------|----------------|----------------|----------------|
E |_| |----------------|----------------|----------------|------------3---|
B   | |3-3-3-3-3-3-3-3-|3-3-3-3-3-3-3-3-|3-3-3-3-3-3-3-3-|3-3-5-3-6-3---3-|

       1 + 2 + 3 + 4 +  1 + 2 + 3 + 4 +  1 + 2 + 3 + 4 +  1 + 2 + 3 + 4 +
C     |----------------|----------------|----------------|----------------|
G |_| |----------------|----------------|----------------|----------------|
D   | |----------------|----------------|----------------|----------------|
A     |----------------|----------------|3-----3-----3-3-|----------------|
E |_| |----------------|----------------|----------------|----------------|
B   | |3-3-3-3-3-3-3-3-|3-3-3-3-3-3-3-3-|----------------|----------------|

       1 + 2 + 3 + 4 +  1 + 2 + 3 + 4 +  1 + 2 + 3 + 4 +  1 + 2 + 3 + 4 +
C     |----------------|----------------|----------------|----------------|
G |_| |----------------|----------------|----------------|----------------|
D   | |------0---------|----0-0-3---2---|------0---------|----0-----------|
A     |3-------------1-|--1-------------|3-------------1-|--1-----3-------|
E |_| |----------------|----------------|----------------|----------------|
B   | |----------------|----------------|----------------|----------------|

       1 + 2 + 3 + 4 +  1 + 2 + 3 + 4 +  1 + 2 + 3 + 4 +  1 + 2 + 3 + 4 +
C     |----------------|----------------|----------------|----------------|
G |_| |----------------|----------------|----------------|----------------|
D   | |------0---------|----0-0-3---2---|----------------|----------------|
A     |3-------------1-|--1-----------3-|1-----0---------|----3-3---------|
E |_| |----------------|----------------|------------3---|----------------|
B   | |----------------|----------------|----------------|----------------|

       1 + 2 + 3 + 4 +  1 + 2 + 3 + 4 +  1 + 2 + 3 + 4 +  1 + 2 + 3 + 4 +
G |_| |----------------|----------------|----------------|----------------|
D   | |----------------|----------------|----------------|-----------010--|
A     |3-3-------------|3-3-------------|3-3-------------|3-3-3-----3---1-|
E |_| |----------------|----------------|----------------|----------------|
B   | |----------------|----------------|----------------|----------------|

       1 + 2 + 3 + 4 +  1 + 2 + 3 + 4 +  1 + 2 + 3 + 4 +  1 + 2 + 3 + 4 +
C     |----------------|----------------|----------------|----------------|
G |_| |----------------|----------------|----------------|----------------|
D   | |----------------|----------------|----------------|-----------010--|
A     |33--------------|3-3-------------|3-3-------------|3-3-3-----3---1-|
E |_| |----------------|----------------|----------------|----------------|
B   | |----------------|----------------|----------------|----------------|
Tap to rate this tab
 
# A B C D E F G H I J K L M N O P Q R S T U V W X Y Z