Song name
# A B C D E F G H I J K L M N O P Q R S T U V W X Y Z

Maggie Reilly - Little Boys Eyes tab

                                          Artist - Maggie Rielly
                                         ************************
                                         Song - Little Boys Eyes
                                        *************************
                                              Album - Elena 
                                             ***************
                                          Tabbed By - Ayreon77
                                         **********************



Keyboard Intro
----------------------------------

00:08
Electric Guitar - F C Gm Dm Am Bb C
                                    br
[----------------------|--br-----|-15-13----------]
[------h---10-13-~-~-~-|-10-8----|-------13-------]
[----10-12-------------|------10-|----------15-14-]
[-10-------------------|---------|----------------]
[----------------------|---------|----------------]
[----------------------|---------|----------------]

                    br         br
[------h---17-20-|-17-15----|-18-17---------------]
[----18-20-------|-------18-|-------18----------s-]
[-17-------------|----------|----------17-15-14-\-]
[----------------|----------|---------------------]
[----------------|----------|---------------------]
[----------------|----------|---------------------]


-----------------------------------------------------
Verse 1
********
F                        Gm  Dm
There's something in the air tonight
Bb              Dm     C
  A feeling all around me
F                Gm      Dm
The glimmer of a distant light
Bb          F     
  A star to guide me

-----------------------------------------------------
CHORUS
*******
  Gm    Dm             Am
I don't believe it, it can't be true
Bb  F      Dm C
Halfway up to heaven
  Gm     Dm           Am    
I put my faith and my trust in you
      Dm     Gm    C
Don't let me down


[------------s---]
[------h---10\13-]
[----10-12-------]
[-10-------------]
[----------------]
[----------------]


-----------------------------------------------------
BRIDGE
*******
F     C                Gm  Dm
  You smile and like a rainbow
Am           Bb           F
Everything's bright in my little girl life
             s
[------h---17\20-]
[----18-20-------]
[-17-------------]
[----------------]
[----------------]
[----------------]
     C                 Gm    Dm
Your laughter makes my heart glow
Am          Bb             F
You make me cry with those little boy's eyes

-----------------------------------------------------
Electric Guitar - F C Gm Dm Am Bb C 
                                       h br
[----------------------|--br-----|---13-15------------]
[------h---10-13-~-~-~-|-10-8----|--X------13-------s-]
[----10-12-------------|------10-|-X----------15-14-\-]
[-10-------------------|---------|--------------------]
[----------------------|---------|--------------------]
[----------------------|---------|--------------------]


-----------------------------------------------------
VERSE 2
********
F                 Gm       Dm
I didn't know the time was right
Bb                   Dm    C    [--s-s--b-r--]
  You came along and moved me   [-8\6/8----6-]
F                 Gm   Dm       [------------]
Now everything is here tonight  [------------]
Bb            C    F            [------------]
  The way you love me           [------------]


-----------------------------------------------------
CHORUS
*******
-----------------------------------------------------
BRIDGE
*******
-----------------------------------------------------

             C   F
Never go too far away            [--s-s--b-r--]      
Bb        Dm     C               [-8\6/8----6-]                
Stay here beside me              [------------]                
F                    C      F    [------------]                  
And with your gentle loving ways [------------]                  
Bb         F                     [------------]X2          
Don`t ever leave me                         

-----------------------------------------------------
SOLO
*****                              p                  b
[----brp------15-|---h---15----|-18-17-15-15----15-|-20-20-]
[---18--15-18----|-17-18----18-|-------------18----|-------]
[--X-------------|-------------|-------------------|-------]
[-X--------------|-------------|-------------------|-------]
[----------------|-------------|-------------------|-------]
[----------------|-------------|-------------------|-------]

                                      br
[----brp------15-|---h---15----15-17-17-15--b-r-]
[---18--15-18----|-17-18----18-------------17---]
[--X-------------|------------------------------]
[-X--------------|------------------------------]
[----------------|------------------------------]
[----------------|------------------------------]


-----------------------------------------------------
BRIDGE
*******
02:52       02:55
    p
[-18-17----|---p------]
[-------18-|-18-17----]
[----------|-------17-]
[----------|----------]
[----------|----------]
[----------|----------]

-----------------------------------------------------
BRIDGE
*******
02:59                            h br                      s      br
[------------s---|--br-----|---13-15----------|------h---17\20-|-17-15----]
[------h---10\13-|-10-8----|--X------13-------|----18-20-------|-------18-]
[----10-12-------|------10-|-X----------15-14-|-17-------------|----------]
[-10-------------|---------|------------------|----------------|----------]
[----------------|---------|------------------|----------------|----------]
[----------------|---------|------------------|----------------|----------]

   br
[-18-17-------------]
[-------18----------]
[----------17-15-14-]
[-------------------]
[-------------------]
[-------------------]


-----------------------------------------------------

SOLO
*****                                         p
[--------------------------------13-20-|-18-18-17----]
[--FAST---------------h--h---13--------|----------18-]
[------------h--h---12-14-15-----------|-------------]
[---h--h---12-14-15--------------------|-------------]
[-12-13-15-----------------------------|-------------]
[--------------------------------------|-------------]

      h br                  b               h  p
[---13--15---------------|-20-20-18-17-18-17-18-17--15-15----]
[--X-------13--------s---|--------------------------------17-]
[-X-----------15-14--\12-|-----------------------------------]
[------------------------|-----------------------------------]
[------------------------|-----------------------------------]
[------------------------|-----------------------------------]

                                              h     p  p
[---------------------------------------h---17-18-20-18-17---p--p---]
[---h---18----h---18----h---18----h---18-20----------------20-18-17-]
[-17-19-----17-19-----17-19-----17-19-------------------------------]
[-------------------------------------------------------------------]
[-------------------------------------------------------------------]
[-------------------------------------------------------------------]

Am          Bb             F   
You make me cry with those little boy's eyes

                  fading out
                                                   b r    b r   h  p
[---------------------------------|----------13-15-----|-20---18-20-18-17-]
[---p-----h--p--------------------|---s---13-----------|------------------]
[-19-17-17-19-17---p-------whammy-|-12\14--------------|------------------]
[----------------19-17------bar---|--------------------|------------------]
[----------------------20----dip--|--------------------|------------------]
[---------------------------------|--------------------|------------------]

    p
[-17-13---s---|---------------s-----]
[-------15\12-|-10-13\11--8-11\10-7-]
[-------------|---------------------]
[-------------|---------------------]
[-------------|---------------------]
[-------------|---------------------]


Am          Bb             F   
You make me cry with those little boy's eyes


A Nice Tune. Enjoy..........
Tap to rate this tab
 
# A B C D E F G H I J K L M N O P Q R S T U V W X Y Z