Song name
# A B C D E F G H I J K L M N O P Q R S T U V W X Y Z

Maggie Reilly - Gaia tab

                                          Artist - Maggie Reilly
                                         ************************
                                              Song - Gaia 
                                             *************
                                             Album - Echoes 
                                            ****************
                                          Tabbed By - Ayreon77
                                         **********************



INTRO
******
 Fades in

 GUITAR 1
[-Fades in---------8-8-|---p-----------]\
[-----8-10-10-8-10-----|-10-8-10-8-----] \
[-7-9------------------|-----------9-7-]  \
[----------------------|---------------]   \
[----------------------|---------------]    \
[----------------------|---------------]     \
|                                      |      \ X3 & a bit
|GUITAR 2                              |      /
[----------------------|---------------]     /
[------------------6-6-|--p------------]    /
[-----5-7--7-5--7------|-7-5--7-5------]   /
[-5-7------------------|----------7-5--]  /
[----------------------|---------------] / 
[----------------------|---------------]/


------------------------------------------------------
VERSE 1
********
Dm   C  Am  Dm
Grey winter skies
C      Am       Dm
Cannot dim your light
C  Am  Dm
Autumn winds
C      Am       Gm
Cannot hold you now      Gm  Am Bb    
                       [---------------------]        
-----------------------[-8-10-8--------------]
CHORUS                 [--------10-7----7-10-]  
*******                [-------------10------]
  F        Gm          [---------------------]
I hear you whisper     [---------------------]X3
Am  Gm          C      Gm   Am Bb
    Through the frozen sea
C              Dm
    I hear you calling

(Run Run Runaway)

[-------------------|----------------]
[------8-10--8------|----------------]
[-9-10---------10-9-|------------h---]
[-------------------|-10-10----10-12-]
[-------------------|-------12-------]
[-------------------|----------------]
Gm       C
(Run Run Runaway)               
                      [-10-10-10-12-10-------|------------------] 
----------------------[----------------13-10-|-------10---------]
VERSE 2               [----------------------|-12-12----12-9----]
********              [----------------------|---------------10-]
Dm   C  Am  Dm        [----------------------|------------------]
Gold desert sands     [----------------------|------------------]
C     Am         Dm
Shift across the sun    [-10-10-10-12-10------|------------------|----------]
C  Am  Dm               [----------------13-10|----13----13-10---|----10-13-]
Summer snow             [---------------------|-12----12-------12|-12-------]
C     Am      Gm   Am Bb[---------------------|------------------|----------]
Falls on everyone       [---------------------|------------------|----------]
                        [---------------------|------------------|----------]
                                play both above 2 times one after another
   
------------------------------------------------------
CHORUS
*******                           [-10-10-10-12-10-------|------------------]
    F         Gm                  [----------------13-10-|-------10---------]
But still you whisper             [----------------------|-12-12----12-9----]
Am  Gm          C      Gm   Am Bb [----------------------|---------------10-]
    Through the frozen sea        [----------------------|------------------]
C              Dm                 [----------------------|------------------]X4
    I hear you calling

(Run Run Runaway)
Gm       C
(Run Run Runaway)

------------------------------------------------------
BRIDGE
*******
Dm      C      Am       Bb
Melting snow a midnight sun
Dm         C            Am        Bb
Not how it was when the world was young
Dm      C      Am       Bb
Melting snow a midnight sun
Dm         C            Am        Bb
Not how it was when the world was young

------------------------------------------------------
CHORUS - do notes above for the chorus
*******
------------------------------------------------------
BRIDGE X2
*******
------------------------------------------------------



ENJOY........
Tap to rate this tab
# A B C D E F G H I J K L M N O P Q R S T U V W X Y Z