Song name
# A B C D E F G H I J K L M N O P Q R S T U V W X Y Z

Magic Wands - Crystals chords

Highlighted       Show chord diagrams
Magic Wands - Crystals
Bm = x24432  F#m = 244222  Dmaj7 = xx0222  Gmaj7 = 3x0002

Intro  (A)||Bm   |   A ||x2     ||G  F#m |Bm  A ||x5  

G  F#m |Bm  D  |G  F#m |Bm  A  |G  F#m |Bm  D  |G  F#m |Bm  |Bm  A ||


Verse 1  
G       F#m        Bm         A
 Take a walk with me on the water
G        F#m       Bm            A
 Got the power to make you a believer
G         F#m          Bm              A  G      F#m    Bm    A
 Take you where you've never been before,  never been before

Int   G  F#m |Bm  D  |G  F#m |Bm  A  ||

G         F#m     Bm               A
 Crystals all strung around your heart, yeah
G        F#m         Bm             A
 Got the power to float you to the top where
G        F#m          Bm        A
 Sailing out to the sea in the sunlight
G         F#m     Bm           
 Catching stars alone in the moonlight


Refrain
(Bm)
Crystal highways lit by stars, mystic visions and astral cars
                                                         G
Crystal highways lit by stars, let them wonder where you are


Int   (G)  F#m  |Bm     ||x4   Bm


Bridge
Dmaj7                       Gmaj7
 Stingrays and islands underwater
Dmaj7                   Gmaj7
 Eclipse the California moon
Dmaj7                       Gmaj7
 Heat waves moving through the desert
Dmaj7                  Gmaj7
 Bonfire on the blue lagoon


Int     Bm       F#m        (x4)
         Oh, oh, oh oh oh    



Solo

G   F#m  Bm          G  F#m  Bm         
--------------------|------------------|
--------------------|------------------|
--------------------|------------------|
--------------------|------------------|
--9\----------------|-/9--7------------|
-----5--7---5-7-7-7-|--------5--7--7-7-|

 G     F#m     Bm            G  F#m  Bm         
---------------------------|----------------------|
---------------------------|---------------7------|
---------------------------|---------------7------|
---------------------------|---------------7------|
-5--7--7-7-5---------------|-5--7--7-7-5----------|
-------------7-(7)-(7)-(7)-|----------------------|


Int
     G   F#m   Bm   A     (x4)       
Oh ohhhhh    


Outro 
G       F#m        Bm        A
 Take a walk with me on the water
G        F#m       Bm              A
 Got the power to make you a believer
G         F#m          Bm              A  G      F#m    Bm    
 Take you where you've never been before,  never been before
Tap to rate this tab
# A B C D E F G H I J K L M N O P Q R S T U V W X Y Z