Song name
# A B C D E F G H I J K L M N O P Q R S T U V W X Y Z

Magic - Rude tab

-------------------------------------------------------------------------------
			       MAGIC! - Rude (Solo Tab)
-------------------------------------------------------------------------------
Tabbed by: SuperFunNHappy
E-mail: superfunhappyslide2@hotmail.com

Tuning: Standard

Here is the fill after the first and second chorus. 
e|----------------------|-----------------------|----------------------------|
B|-9-9-9-9-9------------|-9-9-9-9-9-------------|------After the second------|
G|-----------6-6-10--8--|-----------6-6-\10-8-6-|----chorus you play the-----|
D|----------------------|-----------------------|-------solo below-----------|
A|----------------------|-----------------------|----------------------------|
E|----------------------|-----------------------|----------------------------|

SOLO
Quick Slide from 11th fret.           Hard to tab cos of effects.
e|-----------------------------------|---------------------------------------|
B|---------14-16-21~--19-16-14-16----|-7-6-7-6-7-6--7-6----------------------|
G|11\13-15------------------------15-|-6-6-6-6-6-6--6-6----------------------|
D|-----------------------------------|-8-6-8-6-8-6--8-6-6-6-6-6--------------|
A|-----------------------------------|--------------------------4-4-\8-6-4---|
E|-----------------------------------|---------------------------------------|
Keep 13th fret notes short. Slide along rest.
e|-------------------------------|-------------------------------------------|
B|-------------------------------|-------------------------------------------|
G|-13-13-13-13-13----------------|-13-15-13h15-~18---------------------------|
D|----------------11-11-15-13-11-|-------------------------------------------|
A|-------------------------------|-------------------------------------------|
E|-------------------------------|-------------------------------------------|

And thats it! The fill and the third square of the solo are basically the
same notes. I just structured it like this. Why you gotta be so roOoood~?

************************************

| /   slide up
| \   slide down
| h   hammer-on
| p   pull-off
| ~   vibrato
| *   harmonic
| x   Mute note
| b   Bend

************************************
Tap to rate this tab
# A B C D E F G H I J K L M N O P Q R S T U V W X Y Z