Magic - Rude tab

There are a couple of variations in this tab compared to the actual song. It still sounds good though.
Leave a message in the comments if you feel that there are changes that are needed to be made.

s = slide
h = hammer on

e--7s9-11-9-13----13-11-9-11-----------------------------------------------|
B----------------------------9---------------------------------------------|
G-----------------------------------6-8-6-8-6-8-6-8-6-8-6-8h10-8-6---------|
D------------------------------------------------------------------8--8-6--|
A---------------------------------------------------------------------8-6--|
E--------------------------------------------------------------------------|

e-------------------------------------------------------|
B-9-9-9-9-9----6----------9-11-9-11-11s14---------------|
G-----------6-6---8-6-----------------------------------|
D-------------------------------------------------------|
A-------------------------------------------------------|
E-------------------------------------------------------|

If it doesn't make sense play it along with the song and that will definitely help you 
Tap to rate this tab
 
# A B C D E F G H I J K L M N O P Q R S T U V W X Y Z