Magik - Socha Hai tab

Rock ON!!
Socha Hai Tabs..
100 % correct with solo and bridge !!
2 Guitars in Total..

Guitar 1 --- {Rhythm }

Intro

Bar 1 -

|-----------------------------------|
|-----------------------------------|
|-----------------------------------|
|-7---------------------------------|
|-5---------------------------------|
|-----3-5-7~~~---7-9-9s10--5h7-5----|

Bar 2 -

|-----------------------------------|
|-----------------------------------|
|--------------------------------9--|
|-7---5-7-9~~~---9-11-11s12--7h9-7--|
|-5---------------------------------|
|-----------------------------------|

Bar 3 - Silent

Bar 4 -
|--------------------------------------------------------|
|--------------------------------------------------------|
|--------------------------------------------------------|
|-12~~--5-7-9~~~---9-11-12--9-7--------------------------|
|--------------------------------------------------------|
|--------------------------------------------------------|

Bar 5 -

|--------------------------------------------------------|
|--------------------------------------------------------|
|--------------------------------------------------------|
|-12~~--5-7-9~~~---9-11-12--9-7--------------------------|
|--------------------------------------------------------|
|--------------------------------------------------------|


----------
Verse --

Play Power Chords Just Strum Once !!

D                    G
AASMA HAI NEELA KYUN PAANI GILA GILA KYUN

B                  A
GOOL KYUN HAI ZAMI..

D                      G
SILK ME HAI NARMI KYUN AAG ME HAI GARMI KYUN

B                  A
TAARE 2 5 KYUN NAHI

D                    G
PEED HO GAYE KM KYUN TEEN HAI YE MAUSAM KYUN

B                 A
CHAAND DO KYUN NAHI

D                      G
DUNIA ME HAI JUNG KYUN BEHTA LAAL RANG KYUN

B                         A
SARHADE HAI KYUN HAR KAHIN

------------------------------------

Chorus ---

CHORUS:

        D               G
SOCHA HAI......YE TUMNE KYA KABHI
        D                G
SOCHA HAI......KI HAI YE KYA SABHI
        D                   G               D
SOCHA HAI......SOCHA NAHI TO SOCHO ABHI....


------------------------------------

Verse 2 ------

Same As Verse 1
Difference Is That In Verse 1 The Chords D G B A Is Played 4 Times
And In Verse 2 Its Played 2 Times !!

-------------------------------------

Chorus----

Same

----------------------------------

Bridge -----
For Timings Listen To Song..

|------------------------|
|------------------------|
|--7-7--7-5--------------|
|--5-5--4-5--------------|
|------------------------|
|------------------------|

SANAATA SUNAI NAHI DETA

|------------------------|
|------------------------|
|--7-7------4-7----------|
|--5-5------7-7----------|
|------------------------|


AUR HAVAYE DIKHAI NAHI DETI

{Play Power Chords}

G     A   F   G     G    A   C  D
SOCHA HAI KYA KABHI HOTA HAI YE KYUN...

------------------------------------

Solo----

Chords And Timings Same As Verse 2 Just Palm Mute !!

---------------

Bridge 2

Bar 1

|--------------------------------------------------------|
|--------------------------------------------------------|
|--------------------------------------------------------|
|-12~~--5-7-9~~~---9-11-12--9-7--------------------------|
|--------------------------------------------------------|
|--------------------------------------------------------|


Bar 2

|--------------------------------------------------------|
|--------------------------------------------------------|
|--------------------------------------------------------|
|-12~~--5-7-9~~~---9-11-12--9-7--------------------------|
|--------------------------------------------------------|
|--------------------------------------------------------|

-------------------------------------------------------------

Verse 3

Same As Verse 1 !!

---------------------

Chorus {Play 2 Times}

Same

------------------------

Ending

Play Power Chords

C C A D

---------------------------------------------------------------------

Guitar 2 { Lead }

Intro---

Bar 1 --
Silent

Bar 2--
Silent

Bar 3--

|---------------------------------------------------------------|
|3---3---3---3---3---3---3---3---3---3---3---3---3---3---3---3--|
|--2---2---2---2---0---0---0---0---4---4---4---4---2---2---2---2|
|---------------------------------------------------------------|
|---------------------------------------------------------------|
|---------------------------------------------------------------|

Bar 4--
|---------------------------------------------------------------|
|3---3---3---3---3---3---3---3---3---3---3---3---3---3---3---3--|
|--2---2---2---2---0---0---0---0---4---4---4---4---2---2---2---2|
|---------------------------------------------------------------|
|---------------------------------------------------------------|
|---------------------------------------------------------------|

Bar 5--
|---------------------------------------------------------------|
|3---3---3---3---3---3---3---3---3---3---3---3---3---3---3---3--|
|--2---2---2---2---0---0---0---0---4---4---4---4---2---2---2---2|
|---------------------------------------------------------------|
|---------------------------------------------------------------|
|---------------------------------------------------------------|


Verse 1

|---------------------------------------------------------------|
|3---3---3---3---3---3---3---3---3---3---3---3---3---3---3---3--|
|--2---2---2---2---0---0---0---0---4---4---4---4---2---2---2---2|
|---------------------------------------------------------------|  X4
|---------------------------------------------------------------|
|---------------------------------------------------------------|


Chorus
{silent}

Verse 2

|---------------------------------------------------------------|
|3---3---3---3---3---3---3---3---3---3---3---3---3---3---3---3--|
|--2---2---2---2---0---0---0---0---4---4---4---4---2---2---2---2|
|---------------------------------------------------------------|  X2
|---------------------------------------------------------------|
|---------------------------------------------------------------|

Chorus
{silent}

Bridge

For Timing Listen To Song !! Or My Youtube Lesson Will Make Soon

|-------------------------|
|--10~--8--7--------------|
|-----------9~---7--9~----|
|-------------------------|
|-------------------------|
|-------------------------|


|-------14-15-14------------------------------------|
|-15-17----------15----15--15(bend back to normal)--|
|-------------------14------------------------------|
|---------------------------------------------------|
|---------------------------------------------------|
|---------------------------------------------------|

-----------------------------------------------------------
Solo ----

|------------------------------------------------|
|------------------------------------------------|
|--2~--2-4---2~----2-4---2h4p2~------------------|
|----------4----------4---------4-0-2-4-0-2~-----|
|------------------------------------------------|
|------------------------------------------------|


|------------------------------------------------|
|------------------------------------------------|
|-------2~--2-4---2~--2-4---2~--2-4--------------|
|-0-2-4---------4---------4---------2-4-0-2------|
|------------------------------------------------|
|------------------------------------------------|

|-------------------------------------------------------|
|----------10------------10-10---------10---------------|
|--------7-----9b-7----7-------9b-7--7----9b-7-9---7-9--|
|--5s7-9-----------------------------------------9-----7|
|-------------------------------------------------------|
|-------------------------------------------------------|

|----------17------------17-17--------------------------|
|-------15----17b-15--15-------17b-15-------------------|
|-14-16-------------------------------------------------|
|-------------------------------------------------------|
|-------------------------------------------------------|
|-------------------------------------------------------|

|-------------14-15-17--14-15-----14------------------------|
|------15b-17-----------------17-----15-17------------------|
|-14-16------------------------------------14-16------------|
|------------------------------------------------14bf--12~--|
|-----------------------------------------------------------|
|-----------------------------------------------------------|

Bridge 2

Bar 1 Palm Mute

|---------------------------------------------------------------|
|3---3---3---3---3---3---3---3---3---3---3---3---3---3---3---3--|
|--2---2---2---2---0---0---0---0---4---4---4---4---2---2---2---2|
|---------------------------------------------------------------|
|---------------------------------------------------------------|
|---------------------------------------------------------------|

Bar 2 Palm Mute

|---------------------------------------------------------------|
|3---3---3---3---3---3---3---3---3---3---3---3---3---3---3---3--|
|--2---2---2---2---0---0---0---0---4---4---4---4---2---2---2---2|
|---------------------------------------------------------------|
|---------------------------------------------------------------|
|---------------------------------------------------------------|

---------------------------------|
---------------------------------|

Verse 3

Same As Verse 1

-------------

Chorus (silent)
Ending(Silent)
Tap to rate this tab
 
# A B C D E F G H I J K L M N O P Q R S T U V W X Y Z