Guitaretab - guitar tabs
Song name
# A B C D E F G H I J K L M N O P Q R S T U V W X Y Z

Magna-fi - When Im Awake tab

When Iím Awake Ė Magna-Fi
Tuning Ė Drop D
P= Palm Mute
p= Pull off

Intro
Guitar 1
e | ------------------------------|
B|-----6-------6-----6-----6------|
G|---8--8----8-8---8-8--8-8-------|  X8
D|--9-----10----10-----9----------|
A|--------------------------------|
D|--------------------------------|

Pre-Chorus

Guitar 1
e | ------------------------------|
B|-----6-------6-----6-----6------|
G|---8--8----8-8---8-8--8-8-------|
D|--9-----10----10-----9----------| X4
A|--------------------------------|
D|--------------------------------|

Guitar 2
     Palm Mute All
e | --------------------------------------------------|
B|----------------------------------------------------|
G|----------------------------------------------------| X4
D|-10-10-10-10--6-6-6-6--3-3-3-3--9-9-9-9-------------|
A|-10-10-10-10--6-6-6-6--3-3-3-3--9-9-9-9-------------|
D|-10-10-10-10--6-6-6-6--3-3-3-3--9-9-9-9-------------|
(On the chords 6 and 3 on the last repeat, release Palm Mute. Donít play 9)

Chorus

e | -------------------------------------------------------|
B|---------------------------------------------------------|
G|------------------------------------------ --------------|
D|-10-10-10-10-10-10-10-10--6-6-6-6--9-9-9-9---------------|  X2
A|-10-10-10-10-10-10-10-10--6-6-6-6--9-9-9-9---------------|
D|-10-10-10-10-10-10-10-10--6-6-6-6--9-9-9-9---------------|


Verse 2

Guitar 1
e | ------------------------------|
B|-----6-------6-----6-----6------|
G|---8--8----8-8---8-8--8-8-------|
D|--9-----10----10-----9----------| X4
A|--------------------------------|
D|--------------------------------|

Pre-Chorus

Guitar 1
e | ------------------------------|
B|-----6-------6-----6-----6------|
G|---8--8----8-8---8-8--8-8-------|
D|--9-----10----10-----9----------| X4
A|--------------------------------|
D|--------------------------------|

Guitar 2
     Palm Mute All
e | --------------------------------------------------|
B|----------------------------------------------------|
G|----------------------------------------------------| X4
D|-10-10-10-10--6-6-6-6--3-3-3-3--9-9-9-9-------------|
A|-10-10-10-10--6-6-6-6--3-3-3-3--9-9-9-9-------------|
D|-10-10-10-10--6-6-6-6--3-3-3-3--9-9-9-9-------------|
(On the chords 6 and 3 on the last repeat, release Palm Mute. Donít play 9)

Chorus

e | -------------------------------------------------------|
B|---------------------------------------------------------|
G|------------------------------------------ --------------|
D|-10-10-10-10-10-10-10-10--6-6-6-6--9-9-9-9---------------|  X3
A|-10-10-10-10-10-10-10-10--6-6-6-6--9-9-9-9---------------|
D|-10-10-10-10-10-10-10-10--6-6-6-6--9-9-9-9---------------|



[ Tab from: http://www.guitaretab.com/m/magna-fi/102364.html ]
Bridge
      P    P    P   P   P   P   P   P
e | ---------------------------------------------------------|
B|-----------------------------------------------------------|
G|------------------------------------------ ----------------|
D|-10-10-10-10-10-10-10-10-10--------9-----12----------------|
A|-10-10-10-10-10-10-10-10-----------------------------------|
D|-10-10-10-10-10-10-10-10----10-10---9-9----9---------------|

Solo

e | -----------------------------------------------------------------------------|
B|-15-13-----------------------------------15h16p15h16-18h19p18h19---------------|
G|------------15-13---13-12------12----------------- ----------------------------|
D|- ------15--------15---------13------------------------------------------------|
A|-------------------------------------------------------------------------------|
D|-------------------------------------------------------------------------------|

Bridge

Guitar 1
e | ------------------------------|
B|-----6-------6-----6-----6------|
G|---8--8----8-8---8-8--8-8-------|
D|--9-----10----10-----9----------| X5
A|--------------------------------|
D|--------------------------------|

From 3rd Repetition, Guitar 2 plays this and gradually gets louder

Guitar 2
e | ---4--4--4--4---|
B|--8--8--8--8------|
G|------------------| X2
D|------------------|
A|------------------|
D|------------------|

Chorus

e | -------------------------------------------------------|
B|---------------------------------------------------------|
G|------------------------------------------ --------------|
D|-10-10-10-10-10-10-10-10--6-6-6-6--9-9-9-9---------------|  X3
A|-10-10-10-10-10-10-10-10--6-6-6-6--9-9-9-9---------------|
D|-10-10-10-10-10-10-10-10--6-6-6-6--9-9-9-9---------------|
      P    P    P   P   P   P   P   P
e | ---------------------------------------------------------|
B|-----------------------------------------------------------|
G|------------------------------------------ ----------------|
D|-10-10-10-10-10-10-10-10-10--------9-----12----------------|
A|-10-10-10-10-10-10-10-10-----------------------------------|
D|-10-10-10-10-10-10-10-10----10-10---9-9----9---------------|

e | -------------------------------------------------------|
B|---------------------------------------------------------|
G|------------------------------------------ --------------|
D|-10-10-10-10-10-10-10-10--6-6-6-6--9-9-9-9---------------|  X3
A|-10-10-10-10-10-10-10-10--6-6-6-6--9-9-9-9---------------|
D|-10-10-10-10-10-10-10-10--6-6-6-6--9-9-9-9---------------|

e | ---------------------------------------------------------|
B|-----------------------------------------------------------|
G|------------------------------------------ ----------------|
D|-10-10-10-10-10-10-10-10-10--------9-----12----------------|
A|-10-10-10-10-10-10-10-10-----------------------------------|
D|-10-10-10-10-10-10-10-10----10-10---9-9----9---------------|