Song name
# A B C D E F G H I J K L M N O P Q R S T U V W X Y Z

Magneta Lane - 22 tab

i decided to redo the start bit 
coz it was wrong



e--------------------------------------------]
B--------------------------------------------]
G--------------------------------------------]
D--------------------------------------------]
A---6-6-6-6-6-6-6-6--1-1-1-1-1-1-1-1---------]
E---4-4-4-4-4-4-4-4--3-3-3-3-3-3-3-3---------]

e--------------------------------------------]
B--------------------------------------------]
G--------------------------------------------]
D---6-6-6-6-6-6-6-6--8-8-8-8-8-8-8-8---------]
A---4-4-4-4-4-4-4-4--6-6-6-6-6-6-6-6---------]
E--------------------------------------------]

thats the intro im 99% sure of it
even if its wrong, it sounds pretty close
Tap to rate this tab
# A B C D E F G H I J K L M N O P Q R S T U V W X Y Z