Song name
# A B C D E F G H I J K L M N O P Q R S T U V W X Y Z

Magnetic Fields - Asleep And Dreaming tab

Piano arranged for guitar

--8--7-----------|--8--7--5--------|--8--7------------|--8--7-----------|
--------8--------|-----------7-----|--------8---------|--------8--------|
-----------7-----|--------------7~-|-----------9------|-----------7-----|
--------------5~-|-----------------|--------------10~-|--------------5~-|
-----------------|-----------------|------------------|-----------------|
-----------------|-----------------|------------------|-----------------|



-----------------|-----------------|-----------------|-----------------|
--1--0-----------|--1--0-----------|--1--0-----------|--1--0-----------|
--------0--------|--------2--------|--------0--------|--------0--------|
-----------0-----|-----------4--0~-|-----------2-----|-----------0-----|
-----------------|-----------------|--------------2~-|-----------------|
--------------3~-|-----------------|-----------------|--------------3~-|


-----------------|-----------------|-----------------||
--1--0-----------|--1--0-----------|--1--0-----------||
--------0--------|--------2--------|--------0--------||
-----------0-----|-----------4--0~-|-----------2-----||
-----------------|-----------------|--------------3~-||
--------------3~-|-----------------|-----------------||
Tap to rate this tab
 
# A B C D E F G H I J K L M N O P Q R S T U V W X Y Z