Song name
# A B C D E F G H I J K L M N O P Q R S T U V W X Y Z

Magnetic Fields - Underwear tab

E-------------------------------------------------------------------------------------------------|
B-------------------------------------------------------------------------------------------------|
G-------------------------------------------------------------------------------------------------|
D-------------------------------------------------------------------------------------------------|
A-------------------------------0---0-0---0-0---0-0---0-------------------------------------------|
E-0---0-0---0-0---0-0---0-0---0-------------------------0---0-0---0-0---0-0---0-0---0-0---0-0---0-|
  A     pretty    girl          in    her   un  - derwear

E-------------------------------------------------------------------------------------------------|
B-------------------------------------------------------------------------------------------------|
G-------------------------------------------------------------------------------------------------|
D-------------------------------------------------------------------------------------------------|
A-------0---0-0---0-0---0-0---0-0---0-0---0-0---0-0---0-------------------------------------------|
E-0---0-------------------------------------------------0---0-0---0-0---0-0---0-0---0-0---0-0---0-|
  A     pretty    girl          in    her   un  - derwear

E-------------------------------------------------------------------------------------------------|
B-------------------------------------------------------------------------------------------------|
G-------------------------------------------------------------------------------------------------|
D-------------------------------------------------------------------------------------------------|
A-------2---2-2---2-2---2-2---2-0---0-0---0-0---0-0---0-------------------------------------------|
E-0---0-------------------------------------------------0---0-0---0-0---0-0---0-0---0-0---0-0---0-|
If there's anything better      in this world     who cares

(During the chorus, the following passage is played twice.  Then it is played twice again,
but with the treble guitar part played up one octave.)

E-3---------0-------------------------------------------------------0-----------------------------|
B-------------------------1-----------------------4---------0-------------------------------------|
G-----------------------------------2-------------------------------------------------------------|
D-------------------------------------------------------------------------------------------------|
A-------------------------0-2-3-0-2-3-0-2-3-0-2-3-2-3-5-2-3-5-2-3-5-2-3-5-------------------------|
E-0-2-3-0-2-3-0-2-3-0-2-3-------------------------------------------------0-2-3-0-2-3-0-2-3-0-2-3-|

La mort, c'est la mort
mais l'amour, c'est l'amour
La mort, c'est seulement la mort
mais l'amour, c'est l'amour

A pretty boy in his underwear
A pretty boy in his underwear
If there's a better reason to jump for joy who cares...
Tap to rate this tab
 
# A B C D E F G H I J K L M N O P Q R S T U V W X Y Z