Song name
# A B C D E F G H I J K L M N O P Q R S T U V W X Y Z

Magnetic Fields - The Book Of Love tab

Open G Tuning: DGDGBD
Capo 1 tuned a little flat

Intro:

|--------------------------------|--------------------------------|
|--------------------------------|--------------------------------|
|----4-------5-------------------|--------------------------------|
|----5-------5-------------------|----4-------5-------------------|
|0-------0-----------------------|0-------0-----------------------|
|--------------------------------|--------------------------------|

Verses:

|--------------------------------|--------------------------------|
|--------------------------------|--------------------------------|
|----4-------5-----------5---5---|------------------------0---0---|
|----5-------5-----------5---5---|----4-------5-----------5---5---|
|0-------0---------------0---0---|0-------0---------------0---0---|
|--------------------------------|--------------------------------|

Thatís pretty much it as far as I can tell. You can put more strumming in, and you have 
to play it with conviction because itís so simple.
Tap to rate this tab
 
# A B C D E F G H I J K L M N O P Q R S T U V W X Y Z