Song name
# A B C D E F G H I J K L M N O P Q R S T U V W X Y Z

Magnetic Fields - All My Little Words tab

Chords:
     Ab   Fm  Eb  Db  Ab
e|----4---1---6---4---4-----------------------------------------------------|
B|----4---1---8---6---4-----------------------------------------------------|
G|----5---1---8---6---5-----------------------------------------------------|
D|----6---3---8---6---6-----------------------------------------------------|
A|----6---3---6---4---6-----------------------------------------------------|
E|----4---1---6---4---4-----------------------------------------------------|

Lead Guitar

e|----------------|------3-----4-----3-----1--------------------------------|
B|--2--2--1-1-----|---4-----4-----4-----4-----------------------------------|
G|--------------*-|---------------------------------------------------------|
D|--------------*-|---------------------------------------------------------|
A|----------------|---------------------------------------------------------|
E|----------------|---------------------------------------------------------|

Solo (with an effect)

e|--------------------------------------------------------------------------|
B|--1--1--------2--2--1--1--------4--4--2--2--1-----------1-----------------|
G|--------3--3-----------------------------------3--1--3--------------------|
D|-----------------------------------------------------------3--------------|
A|--------------------------------------------------------------------------|
E|--------------------------------------------------------------------------|

e|--------------------------------------------------------------------------|
B|--4--4--2--2--1-----------------2--2--1--1--------------------------------|
G|-----------------3--1--3--------------------3--3--1--1--------------------|
D|--------------------------------------------------------------------------|
A|--------------------------------------------------------------------------|
E|--------------------------------------------------------------------------|

If there are any mistakes feel free to comment
Just listen to the song for the lead guitar part + strumming.
ENJOY!
Tap to rate this tab
# A B C D E F G H I J K L M N O P Q R S T U V W X Y Z