Guitaretab - guitar tabs
Song name
# A B C D E F G H I J K L M N O P Q R S T U V W X Y Z

Magnolia Y Los No Me Olvides - No Lo Hagas No Vale La Pena tab

Cuando tengas de llorar te prometo hare lo posible para hacerte sonreir OkiZz

TqmMm mi linda niña "rub1"

G             C*
 Ayer yo aprendí
              Am                      D
Que todo mundo está solo hasta el fin
G              C*               Am
Y que tus ojos tienen que llover
                   D         G
Para que puedas decir ya crecí
         C*
Y Si el llorar no ayuda
     Am                    D
Es mejor que te pongas a escribir
 G                   C*
Algún poema, un verso honesto O
       Am                 D
Una simple canción para vivir

-0-------2------------------------0----------2---------|
-1-------3------------------------1----------3---------|
-2-------2-------------0-----0----2----------2---------|
-2-------0-----------0-----2---2--2----------0---------|
-0-------2---------3-----0-----------------------------|
-----------------3-------------------------------------|
Seguiré trabajando
Mas nunca lo lograré
No borraré los problemas de ayer

  G - C* - Am - D

7-5---7-5---7-5-7-5---7-5---7-5-8-7----8-7----8-7-8-7----7-8-10-12-14-|
----8-----8---------8-----8---------10-----10---------10--------------|
----------------------------------------------------------------------|
----------------------------------------------------------------------|
----------------------------------------------------------------------|
----------------------------------------------------------------------|

Niña no te preocupes
Pues de ahora en adelante vigilaré
Cuando tengas ganas de llorar
Prometo me reiré
Y contagiarte así la risa
Si es que tu dolor no me lo evita
Si yo no puedo hacer que te sientas tu mejor
El tiempo lo curará

Seguiré trabajando
Mas nunca lo lograré
No borraré los problemas de ayer
[ Tab from: http://www.guitaretab.com/m/magnolia-y-los-no-me-olvides/109673.html ]
7-10-8-7-8-10-8-7---10-8-7-10-7-8-7-------10-8-7----7-8-12-10-8-7----|
------------------8-----------------10-10--------10---------------10-|
---------------------------------------------------------------------|
---------------------------------------------------------------------|
---------------------------------------------------------------------|
---------------------------------------------------------------------|


Seguiré trabajando
(Cuando no estás dormida tu)
Mas nunca lo lograré
(No estás muerta)
Seguiré trabajando
(Y cuando mueras tu estarás)
Mas nunca lo lograré
(No morirás)

Seguiré trabajando
(Cuando no estás dormida tu)
Mas nunca lo lograré
(No estás muerta)
No borraré los problemas de ayer
(Y cuando mueras tu estarás)

Bm          Em
 Aguanta un poco más
Bm          Em
 Aguanta un poco más
Bm          Em
 Aguanta un poco más
Am            D
 Solo Un poco más


e|-------------------------------------------------------------|
B|-------------------------------------------------------------|
G|-------------------------------------------------------------|
D|--9-9-7-5--7-10-10-9-5-5/7--------9--7-5--7-10-12-10-9-7-----|
A|-------------------------------------------------------------|
E|-------------------------------------------------------------|


Seguiré trabajando
Mas nunca lo lograré
No borraré los problemas de ayer

7-10-8-7-8-10-8-7---10-8-7-10-7-8-7-------10-8-7----7-8-12-10-8-7----|
------------------8-----------------10-10--------10---------------10-|
---------------------------------------------------------------------|
---------------------------------------------------------------------|
---------------------------------------------------------------------|
---------------------------------------------------------------------|


Seguiré trabajando
 (Cuando no estás dormida tu)
Mas nunca lo lograré
 (No estás muerta)
Seguiré trabajando
 (Y cuando mueras tu estarás)
Mas nunca lo lograré
 (No morirás)

Seguiré trabajando
 (Cuando no estas dormida tu)
Mas nunca lo lograré
 (No estás muerta)
No borraré los problemas de ayer
 (Y cuando mueras tu estarás)

_________
   C*    |
e|---|   |
B|-6-|   |
G|-5-|   |
D|-5-|   |
A|-3-|   |
E|---|   |
_________|
Related for No Lo Hagas No Vale La Pena tab