Song name
# A B C D E F G H I J K L M N O P Q R S T U V W X Y Z

Magnum - Spin Like A Wheel tab

MAGNUM Ė Spin Like A Wheel
from the album The Visitation (2011)

well, they've really outdone themselves this time, amazing song...
this one goes out to Mishka, missing you still...

Verse 1:
            Dm                       C
Spin like a wheel, I fall down to my knees
Dm                             Bb
   Donít you know how bad that feels
Am                         Bb
   It hurts when youíre in need
         Dm           C
Never forget, never regret
Dm                       C
   I donít know where to go
Dm                             Bb
   And I could run through the rain
Am                         Bb
   But thereís one thing I know
         Dm           C
Never forget, never regret

Pre-chorus 1:
Bb                 Am  Bb                C
Now tell me if you can just how it all began

Chorus 1:
Dm                Bb
   Unfamiliar you came
F                   C
   And there was no guarantee
Dm                         Bb             C
   Couldnít look past your face into your eyes
Dm                   Bb
   I got hurt by the pain
F                  C
   Oh you wouldnít disagree
Dm              Bb               C
   In a fatal embrace I would despise
F                    C
   Now I know it was only a dream
Dm                    C
   No, it never could last
Dm        Bb    C
   It ran by so fast

Solo rhythm:
Dm, Bb, Am, Dm, Dm, Bb, Am, Am (4x)

Verse 2:
              Dm
Where are you now?
                     C
In dreams why do you weep?
Dm                        Bb
   Your tears, they never show
Am                          Bb
   Because theyíre yours to keep
            Dm               C
So never forget, no, never regret

Pre-chorus 2:
Bb                 Am  Bb                      C
Now tell me if you can whatís the price of any man

Chorus 2:
Dm                       Bb
   Cause Iím missing you still
F                     C
   Like an unfinished symphony
Dm                        Bb             C
   Donít know how it will end, surely in tears
Dm                     Bb
   Iím not feeling the thrill
F                     C
   But thanks for the memory
Dm                       Bb                  C
   Itís a thing we canít mend, thatís become clear
F                    C
   Now I know it was only a dream
Dm                    C
   No, it never could last
Dm        Bb    C
   It ran by so fast

Interlude:
e--------------------------|----------------------|
B---13b(15)---13-----------|---6b(8)---6----------|
G------------------12------|---------------5------|
D--------------------------|----------------------|
A--------------------------|----------------------|
E--------------------------|----------------------| 2x

then play Bb chord

repeat Interlude

then play Bb chord

then play some Dm chord

Bridge:
e----------------------------------------|
B---10-8h10p8----8-----------------------|
G-------------10---10-9-10-9-7-5-7-------|
D----------------------------------------|
A----------------------------------------|
E----------------------------------------|

e------------------------------------------------------|
B---10-8h10p8----8-------------------------------------|
G-------------10---10-9-10-9h10p9----9----------9-10---|
D---------------------------------12---12-10-12--------|
A------------------------------------------------------|
E------------------------------------------------------|

repeat Bridge

End of solo section:
e-----------------------------|
B-----------------------------|
G-----------------------------|
D----------------0----2---3---|
A-0----1----3-----------------|
E-----------------------------|

repeat Chorus 1

repeat Chorus 2

Tap to rate this tab
 
# A B C D E F G H I J K L M N O P Q R S T U V W X Y Z