Song name
# A B C D E F G H I J K L M N O P Q R S T U V W X Y Z

Magnum - The Blue And The Grey tab

                                          Artist - Magnum
                                         *****************
                                    Song - The Blue And The Grey 
                                   ******************************
                                     Album - Brand New Morning 
                                    ***************************
                                        Tabbed By - Ayreon77
                                       **********************


INTRO - Keyboard
******

Use a volume pedal to bring in the notes, listen for when he uses the vol

00:32
  Am       C       G          F    Am       C           G           F
  pre bend the
[-note-------|---------|--------|--b---b-15----|--brp------|--brp------]
[---|----rb--|-b-rp----|-rbp----|-15--15----13-|-15--13-15-|-15--13----]
[---7---7--5-|-7---5-7-|-7--5---|--------------|-----------|--------14-]
[------------|---------|------7-|--------------|-----------|-----------]
[------------|---------|--------|--------------|-----------|-----------]
[------------|---------|--------|--------------|-----------|-----------]

           Am
[-------------]
[---s---13----]
[-10\14----14-]
[-------------]
[-------------]
[-------------]

-------------------------------------------------------
VERSE 1
********
           C
Lonely the wind calls
         G
Over the fields
                    F
Of the blue and the grey
               Am
[---------------]
[-brp-----------]
[-7--5------5---]
[------7------7-]
[---------------]
[---------------]
               C
And slowly the night falls
             G
It hides and conceals
                     F
Oh, the blue and the grey

[--brp------]
[-15--13----]
[--------14-]
[-----------]
[-----------]
[-----------]

-------------------------------------------------------
CHORUS
*******
D
Your thoughts of pride and glory

These things won't bring you home

It's every young man's story

Your castle walls are strong
Bm
No fear, no desperate worry

Forget where you belong
D
With every step you hurry

You have to carry on
A
We never end up learning

You'll never be returning

-------------------------------------------------------
 Am              C                    G          F       Am
02:16                                    pinch
[------------5-8-------s-|-----5-----vol-|---------|--b--------]
[-b------b-5-----5-8-8-\-|-b-8-----5-----|-b-rp----|-13--13-~~~]
[-7-~~~--7---------------|-7-----7----7--|-7---5---|-----------]
[------------------------|---------------|-------7-|-----------]
[------------------------|---------------|---------|-----------]
[------------------------|---------------|---------|-----------]

-------------------------------------------------------
VERSE 2
********
                      C
You're running like a blind man
       G
Nobody knows
                         F
If you're blue or you're grey

[--------]
[-brp----]
[-7--5---]
[------7-]
[--------]
[--------]
Am                   C
   So tell me how it started
             G
What can you say

[--------]
[-brp----]
[-7--5-7-]
[--------]
[--------]
[--------]
               F
Whether you're blue

[--------]
[-brp----]
[-7--5---]
[------7-]
[--------]
[--------]

You're blue or you're grey

-------------------------------------------------------
CHORUS
*******
-------------------------------------------------------
03:44
Heavy Guitar Comes In
BRIDGE
*******
F
When
                 C
When it comes to pass
    G
And you
                 Bb
You breathe your last
   F
No When
                 C
When it comes to pass
      
Oohhhh

-------------------------------------------------------
04:08
SLIDE SOLO - use a slide
***********
 D  - 1st time around
 Bm - 2nd time around                 D
[--s---s----s----s--|--s---s----s----|--s---s----s----s--|--s---s----s----]
[-7\8-8\7--7\5--5\7-|-7\8-8\7--5\3-3-|-7\8-8\7--7\5--5\7-|-7\8-8\7--5\3-3-]
[-------------------|----------------|-------------------|----------------]
[-------------------|----------------|-------------------|----------------]
[-------------------|----------------|-------------------|----------------]
[-------------------|----------------|-------------------|----------------]X2

04:40
 A
[---------s---s----]
[-2-0-2--3\5-5\7-5-]
[------------------]
[------------------]
[------------------]
[------------------]X2

-------------------------------------------------------
04:48
CHORUS
*******
-------------------------------------------------------

05:28
  C   B   Am                                                             C
[-----------h--p------|----------------------------------------------------]
[-13--12--12-13-12----|---h--p---------h--p--s--h-------h-----h--p--s----b-]
[------------------14-|-14-16-14-12--12-14-12\11-12---10-12-10-12-10\9-7-7-]
[---------------------|----------------------------------------------------]
[---------------------|----------------------------------------------------]
[---------------------|----------------------------------------------------]

   whammy
 G dive  A
[----|-------------------------------------------------------------]
[----|----h-p-h-p-h-p-h-p-h-p-h-p----h-p-------------whammy--------]
[-7--7---6-7-6-7-6-7-6-7-6-7-6-7-6--6-7-6----------------dive------]
[-----------------------------------------9-7-~~~~~~~-------to end-]
[------------------------------------------------------------------]
[------------------------------------------------------------------]


ENJOY.....
Tap to rate this tab
 
# A B C D E F G H I J K L M N O P Q R S T U V W X Y Z