Song name
# A B C D E F G H I J K L M N O P Q R S T U V W X Y Z

Magnum - Back Street Kid tab



  
                          Magnum / Back street kid

                     (transcribed in a hurry by mEeK)



                                                        
He had eyes of the poor wild and hungry
Stood outside of the store shy and clumsy
Saw an electric guitar he got hooked from the start
That's what it did
To the back street kid
                                                                               
E||--------------|--------------|----------------------|----------------------|
B||--------------|--------------|--6----6----5----5----|----------------------|
G||--------10----|--------10----|--5----5----5----5----|------------5---------|
D||--10----10----|--10----10----|--5----5----5----5----|--x----x----5----x----|
A||--10----8-----|--10----8-----|----------------------|--x----x----3----x----|
E||--8-----------|--8-----------|----------------------|----------------------|


                                                           
------------|----------------------|----------------------|
------------|----------------------|----------------------|
--5----5----|--2---------5---------|-------5--------------|
--5----5----|--2----3----5----x----|--x----5----x----x----|
--3----3----|--0----3----3----x----|--x----3----x----x----|
------------|-------1--------------|----------------------|

            --> It's a dangerous game.......
                                                                     
----------------------|----------------------|----------------------|
----------------------|----------------------|----------------------|
--5---------5---------|-----------------5----|------------5---------|
--5----x----5----3----|--5----3----3----5----|--x----x----5----x----|
--3----x----3----3----|--5----3----3----3----|--x----x----3----x----|
-----------------1----|--3----1----1---------|----------------------|


                                                                               
----------------------|--1-------------------|------------1----|--------------|
----------------------|--1-------------------|-------6----1----|--------------|
-------5---------5----|--2----5--------------|--7---------2----|--------10----|
--x----5----x----5----|--3----5---------7----|------------3----|--10----10----|
--x----3----x----3----|--3----3----5---------|------------3----|--10----8-----|
----------------------|--1-------------------|------------1----|--8-----------|


                       
--------------|------||
--------------|------||
--------10----|------||
--10----10----|------||
--10----8-----|------||
--8-----------|------||


Dream, dream, back street kid:

E||----------------------|----------------------|----------------------|
B||-----------------6----|----------------------|-------6--------------|
G||--5--------------5----|--x----x----5---------|-------5----x----x----|
D||--5----x----x----7----|--x----x----5----x----|--x----7----x----x----|
A||--3----x----x----0----|--0----0----3----x----|--x----0----0----0----|
E||----------------------|----------------------|----------------------|


                     
------------|------||
------------|------||
------------|------||
--3----5----|------||
--3----5----|------||
--1----3----|------||


E||-----------------||
B||-------6---------||
G||--5----5----5----||
D||--5----7----5----||
A||--3----0----3----||
E||-----------------||


And bla, bla, bla, bla..... listen to the record, all riff parts is in this file.



The end goes:


E||----------------------|----------------------|----------------------|
B||-----------------6----|----------------------|-------6--------------|
G||--5--------------5----|--x----x----5---------|-------5----x----x----|
D||--5----x----x----7----|--x----x----5----x----|--x----7----x----x----|
A||--3----x----x----0----|--0----0----3----x----|--x----0----0----0----|
E||----------------------|----------------------|----------------------|


                     
----------------|------||
-6-----------6--|------||
-5--------5--5--|------||
-7----5---5--7--|------||
-0----5---3--0--|------||
----------------|------||


Any wanted Magnum tab goes to meek@spray.se

Cya!
Tap to rate this tab
# A B C D E F G H I J K L M N O P Q R S T U V W X Y Z