Guitaretab - guitar tabs
Song name
# A B C D E F G H I J K L M N O P Q R S T U V W X Y Z

Mago De Oz - El Angel Caido tab

(2:13)  Solo de guitarra
E|---------------------------------------------------------------------------|
B|---------------------------------------------------------------------------|
G|--<7b9>-5-<7b9b7>p5---5------------------------------------------------5-7-|
D|--------------------7----7-5---------------------------------------5-7-----|
A|-----------------------------7-6-5-3-<5>~-3-------3-----<3>-----/7---------|
E|--------------------------------------------5-3-5---5--5---5~--------------|
P.M                        ...........
-------------------------------------------------------------------------8-8-|
------------------------------8---8--------8-10-10b12b10p8---8-10b12-10~-----|
---7b9-b7p5---5-----------5-7-7b9-7b9~--/9-----------------9-----------------|
------------7---7p5---5-7----------------------------------------------------|
--------------------7--------------------------------------------------------|
-----------------------------------------------------------------------------|

---10p8----8-----------------------8p5---5-----------------------------------|
--------10---10p8---8-10b12-<10>~------8---8p5---5h8p5---------------------8-|
------------------9----------------------------7-------7p5h7-5---5-7b9---7b9-|
---------------------------------------------------------------7-------------|
-----------------------------------------------------------------------------|
-----------------------------------------------------------------------------|

---------------------------------------------|
-----8---8---8-8-----8-----------------------|
---7b9-7b9-7b9-7~--7b9-7b9-9b7p5---5-7-9-7~--|
---------------------------------7-----------|
---------------------------------------------|
---------------------------------------------|
[ Tab from: http://www.guitaretab.com/m/mago-de-oz/191468.html ]
Related for El Angel Caido tab