Song name
# A B C D E F G H I J K L M N O P Q R S T U V W X Y Z

Mago De Oz - La Danza Del Fuego tab

La Danza Del Fuego
intro (violín)
---------------------------------------------------------|
---------------------------------------------------------|
--7-9-10--9-7--------7-9-7----7-9-10--9-7-----9-7-----7--|
--------------10--10----------------------10-------10----|
---------------------------------------------------------|
---------------------------------------------------------|

----------------------------------------------------------|
------------------------------------------8--10-8---------|
--7-9-10--9-7--------7-9-7----7-9-10--9-7----------9-7~---|
--------------10--10--------------------------------------|
----------------------------------------------------------|
----------------------------------------------------------|

ENTRA GUITARRA CON DISTORCION
E|------------------|---------------|--------------|------------------|
B|------------------|---------------|--------------|------------------|
G|-------5---5---7--|----5--9-7-5-7-|-----5--5--7--|-----5--14-12-9-7-|
D|---3---5---5---7--|-3--5--9-7-5-7-|--3--5--5--7--|--3--5--14-12-9-7-|
A|---3---3---3---5--|-3--3--7-5-3-5-|--3--3--3--5--|--3--3--12-10-7-5-|
E|---1--------------|-1-------------|--1-----------|--1---------------|

verso 1

  dm             am
cuanto mas he de esperar

  dm              am
cuanto más he de buscar

  F           C
para poder encontrar

  F           C        dm
la luz que se que hay en mi

  dm           am
he vivido en soledad

  dm           am
rodeado de multitud

  F            C
nunca he conseguido amar

  F            C     dm
pues no me quiero ni yo

violín (lento)
----------------------------------------------------------|
----------------------------------------------------------|
--10-7-----10-7------------9-------9----------------------|
-------7--------7------------10------10-------------------|
-----------------------------10------10-------------------|
----------------------------------------------------------|x3

Despues
----------------------------------------------------------|
----------------------------------------------------------|
--------10---------------9--7----10-9-7-------------------|
------------10--7----10-----------------------------------|
------------------10--------------------------------------|
----------------------------------------------------------|

CUANDO VEAS UNA ESTRRELLA FUGAZ GUARDALA EN TU CORAZON
E|-------------------------------------------------|
B|-------------------------------------------------|
G|------10x---10x------5x----5x---5x--5x---7x--7x--|
D|------10x---10x------5x----5x---5x--5x---7x--7x--|
A|-------8x----8x------3x----3x---3x--3x---5x--5x--|
E|-------------------------------------------------|

 ES EL ALMA DE ALGUIEN QUE CONSIGUIO DAR A LOS SUYOS SU AMOR
E|---------------------------------------------------------------|
B|---------------------------------------------------------------|
G|------------------------5x------5x--5x---5x------------7x--7x--|
D|-----7x---7x------------5x------5x--5x---5x------------7x--7x--|
A|-----7x---7x------------3x------3x--3x---3x------------5x--5x--|
E|-----5x---5x---------------------------------------------------|
CUANDO OIGAS A UN NIÑO PREGUNTAR POR QUE EL SOL VIENE Y SE VA
E|-------------------------------------------------|
B|-------------------------------------------------|
G|------10x---10x------5x----5x---5x--5x---7x--7x--|
D|------10x---10x------5x----5x---5x--5x---7x--7x--|
A|-------8x----8x------3x----3x---3x--3x---5x--5x--|
E|-------------------------------------------------|
DILE POR QUE EN ESTA VIDA NO HAY LUZ SIN LA OSCURIDAD
E|---------------------------------------------------------------|
B|---------------------------------------------------------------|
G|------------------------5x------5x--5x---5x------------7x--7x--|
D|-----7x---7x------------5x------5x--5x---5x------------7x--7x--|
A|-----7x---7x------------3x------3x--3x---3x------------5x--5x--|
E|-----5x---5x---------------------------------------------------|

violín parte 2
----------------15----------------------------------------|
-15-17-18-18-18----18-17-15---------------15-17-15--------|
----------------------------17--17-17-17------------------|
----------------------------------------------------------|
----------------------------------------------------------|
----------------------------------------------------------|

----------------15----------------------------------------|
-15-17-18-18-18----18-17-15------17-15-----17-15------15--|
----------------------------17---------17--------17-------|
----------------------------------------------------------|
----------------------------------------------------------|
----------------------------------------------------------|

----------------15----------------------------------------|
-15-17-18-18-18----18-17-15---------------15-17-15--------|
----------------------------17--17-17-17------------------|
----------------------------------------------------------|
----------------------------------------------------------|
----------------------------------------------------------|

----------------15-------15-17--17-15---------------------|
-15-17-18-18-18----18-17--------------18--17-18-17-15-----|
----------------------------------------------------------|
----------------------------------------------------------|
----------------------------------------------------------|
----------------------------------------------------------|

  SI  ERES   CAPAZ DE DEVOLVER
E|---------------------------------|
B|---------------------------------|
G|--7x-7x------------5x-5c---5x-5x-|
D|--7x-7x---8x-8x----5x-5x---5x-5x-|
A|--5x-5x---8x-8x----3x-3x---3x-3x-|
E|----------6x-6x------------------|

 CON UNA SONRISA UNA TRAICION
E|---------------------------------|
B|---------------------------------|
G|--7x-7x------------5x-5c---5x-5x-|
D|--7x-7x---8x-8x----5x-5x---5x-5x-|
A|--5x-5x---8x-8x----3x-3x---3x-3x-|
E|----------6x-6x------------------|

 SI ERES CAPAZ DE DAR TU MANO A QUIEN
E|-----------------------------------|
B|-----------------------------------|
G|--------------------5x-5x---5x-5x--|
D|--3x-3x---3x-3x-----5x-5x---5x-5x--|
A|--3x-3x---3x-3x-----3x-3x---3x-3x--|
E|--1x-1x---1x-1x--------------------|

 CON LA SUYA TE SEÑALO
E|----------------------------|
B|----------------------------|
G|----------5x-5x-5-5-5-5-7-5-|
D|--3x-3x---5x-5x-5-5-5-5-7-5-|
A|--3x-3x---3x-3x-3-3-3-3-5-3-|
E|--1x-1x---------------------|

 NO ECHES RAICES EN UN SITIO MUEVETE
E|---------------------------------|
B|---------------------------------|
G|--7x-7x------------5x-5c---5x-5x-|
D|--7x-7x---8x-8x----5x-5x---5x-5x-|
A|--5x-5x---8x-8x----3x-3x---3x-3x-|
E|----------6x-6x------------------|
PUES NO ERES UN ARBOL PARA ESO TIENES LOS PIES
E|---------------------------------|
B|---------------------------------|
G|--7x-7x------------5x-5c---5x-5x-|
D|--7x-7x---8x-8x----5x-5x---5x-5x-|
A|--5x-5x---8x-8x----3x-3x---3x-3x-|
E|----------6x-6x------------------|
 EL HOMBRE MAS SABIO ES EL QUE SABE QUE SU HOGAR
E|-----------------------------------|
B|-----------------------------------|
G|--------------------5x-5x---5x-5x--|
D|--3x-3x---3x-3x-----5x-5x---5x-5x--|
A|--3x-3x---3x-3x-----3x-3x---3x-3x--|
E|--1x-1x---1x-1x--------------------|
 ES TAN GRANDE COMO PUEDA IMAGINAR
E|----------------------------|
B|----------------------------|
G|----------5x-5x-5-5-5-5-7-5-|
D|--3x-3x---5x-5x-5-5-5-5-7-5-|
A|--3x-3x---3x-3x-3-3-3-3-5-3-|
E|--1x-1x---------------------|
coro 1
CUANDO VEAS UNA ESTRRELLA FUGAZ GUARDALA EN TU CORAZON
E|-------------------------------------------------|
B|-------------------------------------------------|
G|------10x---10x------5x----5x---5x--5x---7x--7x--|
D|------10x---10x------5x----5x---5x--5x---7x--7x--|
A|-------8x----8x------3x----3x---3x--3x---5x--5x--|
E|-------------------------------------------------|

 ES EL ALMA DE ALGUIEN QUE CONSIGUIO DAR A LOS SUYOS SU AMOR
E|---------------------------------------------------------------|
B|---------------------------------------------------------------|
G|------------------------5x------5x--5x---5x------------7x--7x--|
D|-----7x---7x------------5x------5x--5x---5x------------7x--7x--|
A|-----7x---7x------------3x------3x--3x---3x------------5x--5x--|
E|-----5x---5x---------------------------------------------------|
CUANDO OIGAS A UN NIÑO PREGUNTAR POR QUE EL SOL VIENE Y SE VA
E|-------------------------------------------------|
B|-------------------------------------------------|
G|------10x---10x------5x----5x---5x--5x---7x--7x--|
D|------10x---10x------5x----5x---5x--5x---7x--7x--|
A|-------8x----8x------3x----3x---3x--3x---5x--5x--|
E|-------------------------------------------------|
DILE POR QUE EN ESTA VIDA NO HAY LUZ SIN LA OSCURIDAD
E|---------------------------------------------------------------|
B|---------------------------------------------------------------|
G|------------------------5x------5x--5x---5x------------7x--7x--|
D|-----7x---7x------------5x------5x--5x---5x------------7x--7x--|
A|-----7x---7x------------3x------3x--3x---3x------------5x--5x--|
E|-----5x---5x---------------------------------------------------|
violín parte 2
----------------15----------------------------------------|
-15-17-18-18-18----18-17-15---------------15-17-15--------|
----------------------------17--17-17-17------------------|
----------------------------------------------------------|
----------------------------------------------------------|
----------------------------------------------------------|

----------------15----------------------------------------|
-15-17-18-18-18----18-17-15------17-15-----17-15------15--|
----------------------------17---------17--------17-------|
----------------------------------------------------------|
----------------------------------------------------------|
----------------------------------------------------------|

----------------15----------------------------------------|
-15-17-18-18-18----18-17-15---------------15-17-15--------|
----------------------------17--17-17-17------------------|
----------------------------------------------------------|
----------------------------------------------------------|
----------------------------------------------------------|

----------------15-------15-17--17-15---------------------|
-15-17-18-18-18----18-17--------------18--17-18-17-15-----|
----------------------------------------------------------|
----------------------------------------------------------|
----------------------------------------------------------|
----------------------------------------------------------|
Parte 3 de violin
---------------------------------15------------------------|
--18-15----------15--18-15----18----18-17-15----15-17------|
--------14----14-----------14----------------17------------|
-----------15----------------------------------------------|
-----------------------------------------------------------|
-----------------------------------------------------------|

---------------------------------12------------------------|
--15----------------15--------15----15-13----------13------|
-----14----------14----14-----------------15-14-15---------|
--------15-12-15----------15-------------------------------|
-----------------------------------------------------------|
-----------------------------------------------------------|

-------------15--------------------------------------------|
---------18------17--13----15-15-15-15-13-15---------------|
-----------------------------------------------------------|
-----------------------------------------------------------|
-----------------------------------------------------------|
-----------------------------------------------------------|

*solo de guitarra

E|-----------------------------------------|
B|-----------------------------------------|
G|-9-10---9-10-12-10-9-10-9----9-10-----8--|
D|--------------------------12------12-10--|
A|-----------------------------------------|
E|-----------------------------------------|

E|----------------11-----12-12-12-12-13-14-19-17-14-|
B|-------------10----12-----------------------------|
G|--------------------------------------------------|
D|-11-10-11-13--------------------------------------|
A|--------------------------------------------------|
E|--------------------------------------------------|

E|-17-15-12-17-15-12-17-17-17-17-15-17---|
B|---------------------------------------|
G|---------------------------------------|
D|---------------------------------------|
A|---------------------------------------|
E|---------------------------------------|

A|--3--5--5--5---3--5--5--5---5----3--3--3--3--3-----5--|
    EL MEJOR DIA ES EN EL QUE EL ALMA TIENE HAMBRE Y SED
A|--3--5--5--5---3--5--5--5---5----3--3--3--3--3-----5--|
    NO OLVIDES LO APRENDIDO NO DEJES DE COMPRENDER
A|--3--5--5--5---3--5--5--5---5----3--3--3--3--3-----5--|
    RODEATE DE BUENOS Y TU LO PARECERAS
A|--3--5--5--5---3--5--5--5---5----3--3--3--3--3-----5--|
    RODEATE DE SABIOS Y ALGO EN TI SE QUEDARA

E|------------------------|
B|------------------------|
G|--10--9--7--5-----------|
D|--10--9--7--5-----------|
A|---8--7--5--3--33333333-|
E|------------------------|

CUANDO VEAS UNA ESTRRELLA FUGAZ GUARDALA EN TU CORAZON
E|-------------------------------------------------|
B|-------------------------------------------------|
G|------10x---10x------5x----5x---5x--5x---7x--7x--|
D|------10x---10x------5x----5x---5x--5x---7x--7x--|
A|-------8x----8x------3x----3x---3x--3x---5x--5x--|
E|-------------------------------------------------|

 ES EL ALMA DE ALGUIEN QUE CONSIGUIO DAR A LOS SUYOS SU AMOR
E|---------------------------------------------------------------|
B|---------------------------------------------------------------|
G|------------------------5x------5x--5x---5x------------7x--7x--|
D|-----7x---7x------------5x------5x--5x---5x------------7x--7x--|
A|-----7x---7x------------3x------3x--3x---3x------------5x--5x--|
E|-----5x---5x---------------------------------------------------|
CUANDO OIGAS A UN NIÑO PREGUNTAR POR QUE EL SOL VIENE Y SE VA
E|-------------------------------------------------|
B|-------------------------------------------------|
G|------10x---10x------5x----5x---5x--5x---7x--7x--|
D|------10x---10x------5x----5x---5x--5x---7x--7x--|
A|-------8x----8x------3x----3x---3x--3x---5x--5x--|
E|-------------------------------------------------|
DILE POR QUE EN ESTA VIDA NO HAY LUZ SIN LA OSCURIDAD
E|---------------------------------------------------------------|
B|---------------------------------------------------------------|
G|------------------------5x------5x--5x---5x------------7x--7x--|
D|-----7x---7x------------5x------5x--5x---5x------------7x--7x--|
A|-----7x---7x------------3x------3x--3x---3x------------5x--5x--|
E|-----5x---5x---------------------------------------------------|
violín
----------------15----------------------------------------|
-15-17-18-18-18----18-17-15---------------15-17-15--------|
----------------------------17--17-17-17------------------|
----------------------------------------------------------|
----------------------------------------------------------|
----------------------------------------------------------|

----------------15----------------------------------------|
-15-17-18-18-18----18-17-15------17-15-----17-15------15--|
----------------------------17---------17--------17-------|
----------------------------------------------------------|
----------------------------------------------------------|
----------------------------------------------------------|

----------------15----------------------------------------|
-15-17-18-18-18----18-17-15---------------15-17-15--------|
----------------------------17--17-17-17------------------|
----------------------------------------------------------|
----------------------------------------------------------|
----------------------------------------------------------|

----------------15-------15-17--17-15---------------------|
-15-17-18-18-18----18-17--------------18--17-18-17-15-----|
----------------------------------------------------------|
----------------------------------------------------------|
----------------------------------------------------------|
----------------------------------------------------------|

---------------------------------15------------------------|
--18-15----------15--18-15----18----18-17-15----15-17------|
--------14----14-----------14----------------17------------|
-----------15----------------------------------------------|
-----------------------------------------------------------|
-----------------------------------------------------------|

---------------------------------12------------------------|
--15----------------15--------15----15-13----------13------|
-----14----------14----14-----------------15-14-15---------|
--------15-12-15----------15-------------------------------|
-----------------------------------------------------------|
-----------------------------------------------------------|

-------------15--------------------------------------------|
---------18------17--13----15-15-15-15-13-15---------------|
-----------------------------------------------------------|
-----------------------------------------------------------|
-----------------------------------------------------------|
-----------------------------------------------------------|

E|------------------------|
B|------------------------|
G|--10--9--7--5-----------|
D|--10--9--7--5-----------|
A|---8--7--5--3--33333333-|
E|------------------------|
Tap to rate this tab
# A B C D E F G H I J K L M N O P Q R S T U V W X Y Z