Mago De Oz - La Rosa De Los Vientos tab

Canción: La rosa de los vientos(versión metal)
Artista: Mago de Oz 
          
                              Simbologia
v - vibrato (vibrar)
b - bend (corvar)
r - pre-bend (devolver a su lugar)
s - slide (deslizar)
h - hammer (martillo)
p - pull off (tiron)

Intro:
e|------------------------------------------------------------------------------------------|
B|-16b17-14--14-12------------16b17-14--14-16-17-17b19r17-16----16b17-14--14-12-------------|
G|-----------------14-13-11-----------------------------------------------------14-13-11----|
D|------------------------------------------------------------------------------------------|
A|------------------------------------------------------------------------------------------|
E|------------------------------------------------------------------------------------------| 

e|-12-14-16-14---------12-14-14p16-14-12-----------------12-14-14p16-14-12---12------|
B|-------------16-12---------------------16-14-12-12s14--------------------16--16-17-|
G|-----------------------------------------------------------------------------------|
D|-----------------------------------------------------------------------------------|
A|-----------------------------------------------------------------------------------|
E|-----------------------------------------------------------------------------------|

e|--------------------------------------------------------------------------------------|
B|-14-12---14-17-16-14-12-12s14-14s10----14-12---14-17-16-14-12--14-14-14-14-14-12-14---|
G|------14------------------------------------14----------------------------------------|
D|--------------------------------------------------------------------------------------|
A|--------------------------------------------------------------------------------------|
E|--------------------------------------------------------------------------------------|

...luego va la flauta pero es lo mismo ↑... si quieren pueden repetirlo...


Verso:
e|----------------------------------------------------------------------------|
B|----------------------------------------------------------------------------|
G|----------------------------------------------------------------------------|
D|-8-9-9999999999s44444--4-6--66666--------------------------9-9-9------------|
A|-6-7-7777777777s22222--2-4--44444---66666--6-7-77777s9999--7-7-7--9-9-------|
E|------------------------------------44444--4-5-55555s7777---------7-7-------| 
pm      ................      ......  ......      ............  
                                          /
                                         /  
...luego se repite hasta aqui...        /               ...y luego va esto...
¡
e|-------------------|-------------------------------------16h17p19-|
B|-------------------|-----------------------------16h17p19---------|
G|-------------------|---------------------14h16p18-----------------|
D|-------------5-7---|-------------14h16p18-------------------------|(muy rapido)
A|--------5-7-9---7--|-----14h16p18---------------------------------|
E|-4-5-7-9-----------|----------------------------------------------|
Verso:
e|----------------------------------------------------------------------------|
B|----------------------------------------------------------------------------|
G|----------------------------------------------------------------------------|
D|-8-9-9999999999s44444--4-6--66666--------------------------9-9-9------------|
A|-6-7-7777777777s22222--2-4--44444---66666--6-7-77777s9999--7-7-7--9-9-------|
E|------------------------------------44444--4-5-55555s7777---------7-7-------| 
pm      ................      ......  ......      ............  

e|-----------------------------------------------------------------|
B|-----------------------------------------------------------------|
G|-----------------------------------------------------------------|
D|-8-9-9999999999s44444--4-6--66666--------------------------9-----|
A|-6-7-7777777777s22222--2-4--44444---66666--6-7-77777s9999--7-9-7-|
E|------------------------------------44444--4-5-55555s7777----7-5-| 
pm      ................      ......  ......      ............  

...Esto va junto con la voz en el pre-coro...

-y q mi luz te acompañe...
e|---------16--16----------------16-19b21-19-19-19s21----|
B|-14-16-17-16-14v-12---14-16-17-------------------------|
G|-------------------------------------------------------|
D|-------------------------------------------------------|
A|-------------------------------------------------------|
E|-------------------------------------------------------| 

...esto va junto a la voz en el coro...
e|-21-19-16-21-19-16--------------------------------------------------------|
B|------------------21-19-17-21-19-17---------------------------------------|
G|-----------------------------------20-18-16-20-18-16--18-16-14-18-16-14---|
D|--------------------------------------------------------------------------|
A|--------------------------------------------------------------------------|
E|--------------------------------------------------------------------------| 
                                                     
...entre la vuelta 1 y 2 va lo de... y q mi luz te acompañe...   x2 

...esta es la continuación...
e|---------------------------------------------------------------------------------|
B|---------------------------------------------------------------------------------|
G|-16-14-13-16-14-13---------------------------------------------------------------|
D|------------------19-18-16-19-18-16--18-16-14-18-16-14--16-14-13-16-14-13-14-----|
A|---------------------------------------------------------------------------------|
E|---------------------------------------------------------------------------------| 
	
Verso: primera parte
e|-----------------------------------------|
B|-----------------------------------------|
G|-----------------------------------------|
D|-8-9s4-4s6-6---------9-9-9---------------|
A|-6-7s2-2s4-4--6-7-9--7-7-7-9-9-----------|
E|--------------7-5-7--------7-7-----------| 
                   /
                  /           
...luego se repie hasta aqui...                        

e|-------------------|
B|-------------------|
G|-------------------|
D|-------------5-7---|
A|--------5-7-9---7--|
E|-4-5-7-9-----------|
Verso: segunda perte

e|----------------------------------------------------------------------------|
B|----------------------------------------------------------------------------|
G|----------------------------------------------------------------------------|
D|-8-9-9999999999s44444--4-6--66666--------------------------9----------------|
A|-6-7-7777777777s22222--2-4--44444---66666--6-7-77777s9999--7-9-7------------|
E|------------------------------------44444--4-5-55555s7777----7-5------------| 
pm      ................      ......  ......      ............  

...Esto va junto con la voz en el pre-coro...

-y q mi luz te acompañe...

e|---------16--16----------------16-19b21-19-19-19s21----|
B|-14-16-17--16-14v-12---14-16-17------------------------|
G|-------------------------------------------------------|
D|-------------------------------------------------------|
A|-------------------------------------------------------|
E|-------------------------------------------------------| 

...esto va junto a la voz en el coro... (x2)
e|-21-19-16-21-19-16--------------------------------------------------------|
B|------------------21-19-17-21-19-17---------------------------------------|
G|-----------------------------------20-18-16-20-18-16--18-16-14-18-16-14---|
D|--------------------------------------------------------------------------|
A|--------------------------------------------------------------------------|
E|--------------------------------------------------------------------------| 
                                                     
...entre la vuelta 1 y 2 va lo de -y q mi luz te acompañe...      

...esta es la continuación...  (x2)
e|---------------------------------------------------------------------------------|
B|---------------------------------------------------------------------------------|
G|-16-14-13-16-14-13---------------------------------------------------------------|
D|------------------19-18-16-19-18-16--18-16-14-18-16-14--16-14-13-16-14-13-14-----|
A|---------------------------------------------------------------------------------|
E|---------------------------------------------------------------------------------|

...Se repite el intro...

e|------------------------------------------------------------------------------------------|
B|-16b17-14--14-12------------16b17-14--14-16-17-17b19r17-16----16b17-14--14-12-------------|
G|-----------------14-13-11-----------------------------------------------------14-13-11----|
D|------------------------------------------------------------------------------------------|
A|------------------------------------------------------------------------------------------|
E|------------------------------------------------------------------------------------------| 

e|-12-14-16-14-------|
B|-------------16-12-|
G|-------------------|
D|-------------------|
A|-------------------|
E|-------------------|

Solo:
e|-7p4h5-7p5p4-9p5h7-9p7p5-10p7h9-10p9p7-12p9h11-12p11p9-|
B|-------------------------------------------------------|
G|-------------------------------------------------------|
D|-------------------------------------------------------|
A|-------------------------------------------------------|
E|-------------------------------------------------------|

e|-14p11h12-14p12p11-16p12h14-16p14p12-17p14h16-17p16p14--|
B|--------------------------------------------------------|
G|--------------------------------------------------------|
D|--------------------------------------------------------|
A|--------------------------------------------------------|
E|--------------------------------------------------------|

e|-19p15h17-19p17p15-19b21r19-16---------------|
B|--------------------------------19-17-16-----|
G|-----------------------------------------16--|
D|---------------------------------------------|
A|---------------------------------------------|
E|---------------------------------------------|

...si no es muy comodo pueden transladarlo hacia 2a cuerda...

e|------------------------------------------------------------------------------------|
B|------------------------------------------------------------------------------------|
G|---------------------------------------------------------------14-16--14-16-18------|
D|------------------------------14-16--14-16-18-14-16-18-19-16-18-----18--------------|
A|-14-16-18-19-14-16-18-19-16-18-----18-----------------------------------------------|
E|------------------------------------------------------------------------------------| 

e|------------------------------------------16p17h19------------|
B|------------------16-17--16-17-19-16p17h19--------------------|
G|-14-16-18-20--16-18----18-------------------------------------|
D|--------------------------------------------------------------|
A|--------------------------------------------------------------|
E|--------------------------------------------------------------|
 
e|-0-0-12-0-0-11-0-0-9-0-0-7-0-0-5-0-4-0-5-0-4-0-----------------------------------|
B|-----------------------------------------------7-0-0-5-0-0-4-0-0-4-5-7-----------|
G|-----------------------------------------------------------------------6s2s4-----|
D|---------------------------------------------------------------------------------|
A|---------------------------------------------------------------------------------|
E|---------------------------------------------------------------------------------|

e|-------14b16-------15b17r15-14-12-----14b16r14-------------|
B|-12-12-------12-12---------------12-12---------------------|
G|-----------------------------------------------11b13r11-9--|
D|-----------------------------------------------------------|
A|-----------------------------------------------------------|
E|-----------------------------------------------------------|
 
e|-17-17--19-17-17---------------------------------------------------------------|
B|------17--------17-------------------------------------------------------------|
G|-------------------14-14--16-14-14--------------------14-16--14-16-18-14-16-19-|
D|------------------------14--------14--14-16-18-19-16-18-----18-----------------|
A|-------------------------------------------------------------------------------|
E|-------------------------------------------------------------------------------|
 

e|----------------------------------------------------------------------------------------|
B|------14-16-17-16-14-19b21-17b19-(17-14-12-14-12s14)-17-19-17-14-(17-14-12-14-12s14)----|
G|-16b18------------------------------------(x3)---------------------------(x2)-----------|
D|----------------------------------------------------------------------------------------|
A|----------------------------------------------------------------------------------------|
E|----------------------------------------------------------------------------------------|

e|----------16-17-19-17-16----------------------------|
B|-16-17-19---------------19-17-19b21-21-21-21-21r19--|
G|----------------------------------------------------|
D|----------------------------------------------------|
A|----------------------------------------------------|
E|----------------------------------------------------|

Pre-coro:

e|---------16--16----------------16-19b21-19-19-19s21----|
B|-14-16-17--16-14v-12---14-16-17------------------------|
G|-------------------------------------------------------|
D|-------------------------------------------------------|
A|-------------------------------------------------------|
E|-------------------------------------------------------| 

Coro:

e|-21-19-16-21-19-16--------------------------------------------------------|
B|------------------21-19-17-21-19-17---------------------------------------|
G|-----------------------------------20-18-16-20-18-16--18-16-14-18-16-14---|
D|--------------------------------------------------------------------------|
A|--------------------------------------------------------------------------|
E|--------------------------------------------------------------------------| 

e|---------------------------------------------------------------------------------|
B|---------------------------------------------------------------------------------|
G|-16-14-13-16-14-13---------------------------------------------------------------|
D|------------------19-18-16-19-18-16--18-16-14-18-16-14--16-14-13-16-14-13-14-----|
A|---------------------------------------------------------------------------------|
E|---------------------------------------------------------------------------------|

e|---------16--16----------------16-19b21-19-19-19s21----|
B|-14-16-17--16-14v-12---14-16-17------------------------|
G|-------------------------------------------------------|
D|-------------------------------------------------------|
A|-------------------------------------------------------|
E|-------------------------------------------------------|

 ...en este coro se va disminuyendo la velocidad poco a poco hasta el fin... 
e|-21-19-16-21-19-16--------------------------------------------------------|
B|------------------21-19-17-21-19-17---------------------------------------|
G|-----------------------------------20-18-16-20-18-16--18-16-14-18-16-14---|
D|--------------------------------------------------------------------------|
A|--------------------------------------------------------------------------|
E|--------------------------------------------------------------------------| 

e|---------------------------------------------------------------------------------|
B|---------------------------------------------------------------------------------|
G|-16-14-13-16-14-13---------------------------------------------------------------|
D|------------------19-18-16-19-18-16--18-16-14-18-16-14--16-14-13-16-14-13-14-----|
A|---------------------------------------------------------------------------------|
E|---------------------------------------------------------------------------------|

...el resto es guitarra acústica y violines...
   --- no es de mucha importancia---

espero les sirva...
este es mi e-mail... gibson261094@gmail.com...
Manden mails con sus peticiones...
Con gusto los complasco...
Tap to rate this tab
 
# A B C D E F G H I J K L M N O P Q R S T U V W X Y Z