Song name
# A B C D E F G H I J K L M N O P Q R S T U V W X Y Z

Mago De Oz - Hoy Te Toca Ser Feliz tab

Mägo de Oz 
Hoy te toca ser feliz

Intro:

|-------------8-10--10-----10-12--12--|
|--7-8—-8--12-----------12------------|
|-9-----------------------------------|
|-------------------------------------|
|-------------------------------------|
|-------------------------------------|


|-10---7/10--10--7---------------7--7-|
|----12------------10-8--8-7----------|
|----------------------------9-7------|
|-------------------------------------|
|-------------------------------------|
|-------------------------------------|

|----------10-------------------------|
|--12-10-8----7-8--8------------------|
|-------------------------------------|
|-------------------------------------| Todo - All x2
|-------------------------------------|
|-------------------------------------|
     G
Cuando un sueño se te muera
            Bm
o entre en coma una ilusión,
         Em                       C    D
no lo entierres ni lo llores, resucítalo.

     G
Y jamás des por perdida
      Em
la partida, cree en ti,
          C                      D
y aunque duelan, las heridas curarán.


        Em       C D       Em
Hoy el día ha venido a buscarte
  Am        C       G          D
y la vida huele a besos de jazmín,
     Em         C  D    Em
la mañana esta recién bañada,
   Am           C          G         D
el Sol la ha traído a invitarte a vivir.


    G       Bm
Y verás que tú puedes volar,
C                   D
y que todo lo consigues.
    G       Bm
Y verás que no existe el dolor,
 C                 D
hoy te toca ser feliz.


         G
Si las lágrimas te nublan
      Bm
la vista y el corazón,
        Em
haz un trasvase de agua
          C      D
al miedo, escúpelo.

       G
Y si crees que en el olvido
       Em
se anestesia un mal de amor,
         C
no hay peor remedio
           D
que la soledad.

       Em         C  D     Em
Deja entrar en tu alma una brisa
    Am          C        G        D
que avente las dudas y alivie tu mal.
        Em      C  D    Em
Que la pena se muera de risa,
   Am             C
cuando un sueño muere
           G            D
es porque se ha hecho real.

    G       Bm
Y verás que tú puedes volar,
C                   D
y que todo lo consigues.
    G       Bm
Y verás que no existe el dolor,
 C                 D
hoy te toca ser feliz.

|-------------8-10--10-----10-12--12--|
|--7-8—-8--12-----------12------------|
|-9-----------------------------------|
|-------------------------------------|
|-------------------------------------|
|-------------------------------------|


|-10---7/10--10--7---------------7--7-|
|----12------------10-8--8-7----------|
|----------------------------9-7------|
|-------------------------------------|
|-------------------------------------|
|-------------------------------------|

|----------10-------------------------|
|--12-10-8----7-8-7-----8-7---7-------|
|-------------------9-7-----9---------|
|-------------------------------------| 
|-------------------------------------|
|-------------------------------------|

|--12-12-10---------------------------| 
|-12-------12-10-12-10----------------|
|----------------------11-11----------|
|-------------------------------------| 
|-------------------------------------|
|-------------------------------------|

|----10-7-----------------------------| 
|-10------10-8-10-8-------------------|
|-------------------9-9---------------|
|-------------------------------------| 
|-------------------------------------|
|-------------------------------------|

|--17-17-15---------------------------| 
|-17-------17-15-17-15----------------|
|----------------------16-16----------|
|-------------------------------------| 
|-------------------------------------|
|-------------------------------------|

|----15-12----------------------------| 
|-15------15-13-15-13-----------------|
|---------------------14~-------------|
|-------------------------------------| 
|-------------------------------------|
|-------------------------------------|
         G
Las estrellas en el cielo
      Bm
son solo migas de pan
        Em
que nos dejan nuestros sueños
     C      D
para encontrar
      G
el camino, y no perdernos
      Em
hacia la Tierra de Oz,
 C                   D
donde habita la ilusión.

    G       Bm
Y verás que tú puedes volar,
C                   D
y que todo lo consigues.
    G       Bm
Y verás que no existe el dolor,
 C                 D
hoy te toca ser feliz.

    G       Bm
Y verás que tú puedes volar,
C                       D
y que tu cuerpo es el viento,
        G      Bm
porque hoy tú vas a sonreír,
 C                 D
hoy te toca ser feliz.

G Bm C Em D

G Bm C D  G


Tap to rate this tab
# A B C D E F G H I J K L M N O P Q R S T U V W X Y Z