Song name
# A B C D E F G H I J K L M N O P Q R S T U V W X Y Z

Mago De Oz - Ancha Es Castilla tab

|--------------------------------------------------------------------------|
|--8----8---------------------------------------------8-8----8-9-8---------|
|----10---10---8-8--10--8--10----------7-8--8-7-8-10------10-------10-8-7-8|
|------------------------------9-9--7-9------------------------------------|
|--------------------------------------------------------------------------|
|--------------------------------------------------------------------------|

|-----------------------------------------------8.-------------------------|
|---------------------------------------------8----------------------------|
|--10--8-7-----------------7---7------7-----8------------------------------|
|----------9--7--9----7--9---9---8--9---8-9--------------------------------|
|--------------------------------------------------------------------------|
|--------------------------------------------------------------------------|
Tap to rate this tab
# A B C D E F G H I J K L M N O P Q R S T U V W X Y Z