Song name
# A B C D E F G H I J K L M N O P Q R S T U V W X Y Z

Mago De Oz - Te Guardo Un Beso Por Si Lo Quieres tab

|--0---0---0---0----0----0-----0----0---0---0----|
|--5---5---5---5----5----5-----5----5---5---5----|
|------------------------------------------------|
|------------------------------------------------|
|------------------------------------------------|
|------------------------------------------------|



|--0---0---0---0----0----0-----0----0---0---0------|
|--7---7---7---7----7----7-----7----7---7---7------|
|--------------------------------------------------|
|------------------------------------ -------------|
Tap to rate this tab
 
# A B C D E F G H I J K L M N O P Q R S T U V W X Y Z