Song name
# A B C D E F G H I J K L M N O P Q R S T U V W X Y Z

Mago De Oz - Hasta Que Tu Muerte Nos Separe tab

Hasta que tu muerte nos Separe by Mago de Oz
Tabbed by rAm_Metal_109(ramb_21@hotmail.com)

intro
|---3----------------------------|-3------------------3---|------|
|-----3----3-------------3-------|---0---0------------3---|--(2x)|
|-------0----0--------0-----0----|-----0---0----------0-2x|------|
|--------------2----2----------2-|-----------0-----0--0---|------|
|-----------------3--------------|---------------2----2---|-5-4-2|
|--------------------------------|-------------3------3---|-3-2-0|



|----------------------------------------------------------------|
|----------------------------------------------------------------|
|--12v~-11-12-14-12-11h12------------------12v~-11-12-14-12-11-12|
|-------------------------10v~-10-12-14b-12----------------------|
|----------------------------------------------------------------|
|----------------------------------------------------------------|

			Va mas o menos rapido
|------------15-14-12------------14-12-|
|15-13-12-13----------15-14-12-15------|
|--------------------------------------|
|--------------------------------------|
|--------------------------------------|
|--------------------------------------|

Verso: este es bien simple yva los mismos acordes en todo
Juegen con el ritmo
|--------------------------------------------|
|--------------------------------------------|
|--------------------------------------------|4x
|-----------------------5----5-5-x-7----7-7--|
|-2----2-2-x-2----2—2-x-3--3-3-3-x-5--5-5-5--|
|-0--0-0-0-x-0--0-0-0-x----------------------|
Tan solo quiero que mi voz te desespere y robe la razon                      
y llorando que te abraces a tus miedos, corazón
Espero el dia "muñequita linda" en que tu herida sea tan fuerte
que bañándote en recuerdos, solo te bese el alcohol


Pre coro: esto solo require q le den a la cuerda una vez y suena bien


|---------------------------------------|
|---------------------------------------|
|---------------------------------------|
|-4----5----5-4-2----4-5-4-5-7-5-4\5-4--|
|-2----3----3-2-0----2-3-2-3-5-3-2\3-2--|
|---------------------------------------|


Coro: juegen con el ritmo es muy fácil escuchen la cancion
|----------------------|
|----------------------|
|----------------------|
|-------------5----7---|
|-5-4-2--2----3----5---|
|-3-2-0--0-------------|

Interlude:
Es casi como el riff del comienzo solo q cambia un poco escuchen la canción para ver 

|-------------------------------------------------------|
|-------------------------------------------------------|
|-------------------------------------------------------|
|-5-4---------5---4---7---5-5-4-2-5-4-2-5-2-5-4-2-5-4-2-|2x
|-3-2-0-0-0-0-3-0-2-0-5-0-3-----------------------------|
|-------------------------------------------------------|

|-------------------------------------------------------|
|-------------------------------------------------------|
|-------------------------------------------------------|
|-5-4---------5---4---7---5-5-4-2-5-4-2-5-2-5-4-2-5-4-2-|
|-3-2-0-0-0-0-3-0-2-0-5-0-3-----------------------------|
|-------------------------------------------------------|

	Y a manera avanza  se vuelve mas rápido
|------------------------------------|
|------------------------------------|
|------------------------------------|
|-7-5-4-7-5-4-4-7-4-7-5-4-7-5-4------|
|------------------------------------|
|------------------------------------|

Sale el violin y los otros instrumentos

Solo:les quedo debiendo el solo pero se los prometo q aparecerá =)



Liricas:

Tan solo quiero que mi voz       
te desespere y robe la razon                       
y llorando que te abraces
a tus miedos, corazon


Espero el dia "muñequita linda"         
en que tu herida sea tan fuerte                    
que bañándote en recuerdos,
solo te bese el alcohol

Y verás tu linda cara
frente al espejo demacrada
y el dolor será tu amor
masturbando tu mirada


Tan solo quiero verte llorar
he mandado a la muerte a buscar
tan solo quiero oirte gritar
en el infierno te he de encontrar

Tan solo quiero que tu alma             
no vuelva a ver la luz del sol
y que llores sangre y miedo
y que pagues, corazon


Intentare pisar tu orgullo
tantas veces como pueda
que hasta mi odio te parezca
aire para respirar



Y verás tu linda cara
frente al espejo demacrada
y el dolor será tu amor
masturbando tu mirada

Tan solo quiero verte llorar
he mandado a la muerte a buscar
tan solo quiero oirte gritar
en el infierno te he de encontrar

Ahora más despacio
Con este anillo te desposo
hasta que tu muerte nos separe
es tan fina la barrera
entre el odio y el amor

Lamerás tu cuerpo desnudo
con ginebra en un portal
mendigando un poco de amor
las ratas te acariciarán

Y verás tu linda cara
frente al espejo demacrada
y el dolor será tu amor
masturbando tu mirada

Tan solo quiero verte llorar
he mandado a la muerte a buscar
tan solo quiero oirte gritar
en el infierno te he de encontrar


espero que les guste es relativamente facil diganme si tienen sugerencias
cuidense
Tap to rate this tab
# A B C D E F G H I J K L M N O P Q R S T U V W X Y Z