Song name
# A B C D E F G H I J K L M N O P Q R S T U V W X Y Z

Mago De Oz - Lo Que El Viento Se Dejo tab

solo
A                      C#7                     F#m
|----------------------------------------------|----------------|
|----------------------------------------------|----------------|
|----------------------------------------------|----------------|
|-9/11-9/11-9h11p9-------9b--.--9-9-----9b---9-|-7-----------7--|
|------------------12-9.-----------------------|----9----7h9----|
|----------------------------------------------|----------------|

  D                    A                     C#7
 --------------------|------------------------------------------|
 --------------------|------------------------------------------|
 --------------------|-9p6--------------------------------------|
 -9b--r--7h9--7------|-----9-7---7-9p6--------------------7---7-|
 --------------------|---------9-------8--------8---9-8h9---9---|
 --------------------|-------------------9--------9-------------|

          F#m                  D
 -------|-------------------------------------------------------|
 -------|----------------------------------------14--14------10-|
 -------|----------9----9-11b-9h11--9--------/14----------------|
 -9p7-9-|-9/11--11---11-----------------------------------------|
 -------|-------------------------------------------------------|
 -------|-------------------------------------------------------|

  A                               C#7
|---------------------------------------------------------------|
|------10------10------10------10------11------11------11-------|
|-9h11----9h11----9h11----9h11----9h11----9h11----9h11----9h11--|
|---------------------------------------------------------------|
|---------------------------------------------------------------|
|---------------------------------------------------------------|

       F#m                  D           *soltar de a poco el bend aquí
 ----|----------------------------------v----------|
 -11-|-12b--12b--12b--12b---12b-12b-12b-r~--\\\10--|
 ----|---------------------------------------------|
 ----|---------------------------------------------|
 ----|---------------------------------------------|
 ----|---------------------------------------------|

   A                       C#7
|---------------------------------------------------------|
|---------------------------------------------------------|
|---9---9---9---9---9--------10---10---10---10---10---10--|
|-11--11--11--11--11--11\--11---11---11---11---11---11----|
|---------------------------------------------------------|
|---------------------------------------------------------|

   F#m                       D
|---------------------------------------------------------|
|---------------------------------------------------------|
|---11---11---11---11---11/----11---11---11---14---14\----|
|-11---11---11---11---11-----12---12---12---12---12-------|
|---------------------------------------------------------|
|---------------------------------------------------------|
Tap to rate this tab
 
# A B C D E F G H I J K L M N O P Q R S T U V W X Y Z