Song name
# A B C D E F G H I J K L M N O P Q R S T U V W X Y Z

Mago De Oz - La Santa Compaa tab

Intro (0:00):
De fondo el bajo va tocando LA
Riff 1:
E|------------------------------------------------------------|
B|------------------------------------------------------------|
G|-----------------------------------------5--7---------------|
D|-----------------------------------------5--7---------------|
A|--0-0-2-3-2-0--0-2-3-2-0--0--0-2-3-2-0---3--5---------------|
E|------------------------------------------------------------|
                                                               x4
E|------------------------------------------------------------|
B|------------------------------------------------------------|
G|-----------------------------------------5------------------|
D|-----------------------------------------5--5---------------|
A|--0-0-2-3-2-0--0-2-3-2-0--0--0-2-3-2-0---3--5---------------|
E|--------------------------------------------3---------------|

La tercera vez que se toca eso, el violín se mete tocando esto:
E|------------------------------------------------------------|
B|---------12-13-12---------12-13-12------------12-13-12------|
G|--14--14----------14---14----------14--14--14----------14---|
D|------------------------------------------------------------|
A|------------------------------------------------------------|
E|------------------------------------------------------------|

E|------------------------------------------------------------|
B|--13-15--------15-17-15--------15-17-15------------15-17-15-|
G|--------17--17----------17--17----------17--17--17----------|
D|------------------------------------------------------------|
A|------------------------------------------------------------|
E|------------------------------------------------------------|

E|------------------------------------------------------------|
B|------------------------------------------------------------|
G|--17--------------------------------------------------------|
D|------------------------------------------------------------|
A|------------------------------------------------------------|
E|------------------------------------------------------------|

"Cuando al atardecer los últimos rayos del Sol"
E|---------------|
B|---------------|
G|---------------|
D|--7---5---7----|
A|--7---5---7----|
E|--5---3---5----|
"Jugueteaban a esconder, las luces y el color"
E|---------------|
B|---------------|
G|--5------------|
D|--5---5---7--7-|
A|--3---5---7--7-|
E|------3---5--5-|
"Del bosque del perder"
E|---------------|
B|---------------|
G|---------------|
D|------7--------|
A|------7--------|
E|------5--------|
"Algo se empieza a mover, algo a lo lejos se ve"
E|-----------------------------------------------|
B|-----------------------------------------------|
G|-----------------------------------------------|
D|--3xx-3xx-5xx-5xx-7xx-7xx-7xx-7xx--------------|  x2
A|--3xx-3xx-5xx-5xx-7xx-7xx-7xx-7xx--------------|
E|--1xx-1xx—3xx-3xx-5xx-5xx-5xx-5xx--------------|

Después de eso las guitarras tocan un pequeño puente (0:45):
Guitarra 1:
E|---------------|
B|---------------|
G|----9-7--------|
D|--7-----9-10---|
A|---------------|
E|---------------|
Guitarra 2:
E|---------------|
B|---------------|
G|---------------|
D|---------------|
A|----7-5--------|
E|--5-----7-8----|

"La lluvia hacía del mar un rumor y el dios de las sombras
se instalaba
"La Reina de la noche acudió su majestad la luna bien acompañada"
"De una profesión de almas en pena"
En esa estrofa las guitarras tocan así:
E|--------------------------------------------|
B|--------------------------------------------|
G|-------------------------------------5--7---|
D|-------------------------------------5--7---|
A|--0-0-2-3-2-0-0-2-3-2-0-0-0-2-3-2-0--3--5---|
E|--------------------------------------------|

E|--------------------------------------------|
B|--------------------------------------------|
G|-------------------------------------5------|
D|-------------------------------------5--5---|
A|--0-0-2-3-2-0-0-2-3-2-0-0-0-2-3-2-0--3--5---|
E|----------------------------------------3---|

E|--------------------------------------------|
B|--------------------------------------------|
G|-------------------------------------5--7---|
D|-------------------------------------5--7---|
A|--0-0-2-3-2-0-0-2-3-2-0-0-0-2-3-2-0--3--5---|
E|--------------------------------------------|

"Portadores de luz, rosas en un ataúd"
E|--------------------------------------------|
B|--------------------------------------------|
G|--------------------------------------------|
D|--3xx-3xx--5xx-5xx--7xx-7xx-7xx-7xx---------|  x2
A|--3xx-3xx--5xx-5xx--7xx-7xx-7xx-7xx---------|
E|--1xx-1xx--3xx-3xx--5xx-5xx-5xx-5xx---------|

Ooooooh Ooooooh Ooooooh Ooooooooh
E|--------------------------------------------|
B|--------------------------------------------|
G|--5-----------------------------------------|
D|--5--5--7--3xx-3xx--5xx-5xx-----------------|
A|--3--5--7--3xx-3xx--5xx-5xx-----------------|
E|-----3--5--1xx-1xx--3xx-3xx-----------------|

Se repite lo mismo, pero el violín tocando esto:
E|--12-10-------------12-10-12h13p12-10h12----|
B|--------13-12-13-10-------------------------|
G|--------------------------------------------|
D|--------------------------------------------|
A|--------------------------------------------|
E|--------------------------------------------|

E|--17-15-------------------------------------|
B|--------18-17-15-13h15p13h15p13h15p13h15----|
G|--------------------------------------------|
D|--------------------------------------------|
A|--------------------------------------------|
E|--------------------------------------------|

E|--------------------------------------------|
B|--12h13p12h13p12h13p12h13-------------------|
G|--------------------------------------------|
D|--------------------------------------------|
A|--------------------------------------------|
E|--------------------------------------------|

Aaaaaaahhh!!!
E|--------------------------------------------|
B|--------------------------------------------|
G|--9xx-9xx-9xx-9xx-9xx-9xx-9-----------------|
D|--9xx-9xx-9xx-9xx-9xx-9xx-9-----------------|
A|--7xx-7xx-7xx-7xx-7xx-7xx-7-----------------|
E|--------------------------------------------|

En esta parte de violín, las guitarras van así (1:38):
E|------------------------------------------------------|
B|------------------------------------------------------|
G|-------------------5xx-5xx-5xx-5xx--------------------|
D|--7xx-7xx-7xx-7xx--5xx-5xx-5xx-5xx--5xx-5xx-5xx-5xx---|
A|--7xx-7xx-7xx-7xx--3xx-3xx-3xx-3xx--5xx-5xx-5xx-5xx---|
E|--5xx-5xx-5xx-5xx-------------------3xx-3xx-3xx-3xx---|

E|--------------------------------------------|
B|--------------------------------------------|
G|--7xx-7xx--5--------------------------------|
D|--7xx-7xx--5--5-----------------------------| x2
A|--5xx-5xx--3--5-----------------------------|
E|--------------3-----------------------------|

*Violín 1 (1:38):
E|--12-12-12-12-------------------------------|
B|--------------15-13-12-13-15-13-12-13-12----|
G|-----------------------------------------14-|
D|--------------------------------------------|
A|--------------------------------------------|
E|--------------------------------------------|

E|--12-12-12-12-------------------------------|
B|--------------15-13-12-13-15-13-12----------|
G|-----------------------------------14-------|
D|--------------------------------------------|
A|--------------------------------------------|
E|--------------------------------------------|

E|--12-12-12-12-------------------------------|
B|--------------15-13-12-13-15-13-12-13-12----|
G|-----------------------------------------14-|
D|--------------------------------------------|
A|--------------------------------------------|
E|--------------------------------------------|

E|--------------12----------------------------|
B|-----12-13-15----15-13--15-13-12--13-12-----|
G|--14------------------------------------14--|
D|--------------------------------------------|
A|--------------------------------------------|
E|--------------------------------------------|

E|--12-12-12-12-------------------------------|
B|--------------15-13-12-13-15-13-12-13-12----|
G|-----------------------------------------14-|
D|--------------------------------------------|
A|--------------------------------------------|
E|--------------------------------------------|

E|--12-12-12-12-------------------------------|
B|--------------15-13-12-13-15-13-12----------|
G|-----------------------------------14-------|
D|--------------------------------------------|
A|--------------------------------------------|
E|--------------------------------------------|

E|--12-12-12-12-------------------------------|
B|--------------15-13-12-13-15-13-12----13----|
G|-----------------------------------14----14-|
D|--------------------------------------------|
A|--------------------------------------------|
E|--------------------------------------------|

E|--------12----13-12-17-15-13-12-------------|
B|--15----------------------------15-13-12----|
G|-----14----14-------------------------------|
D|--------------------------------------------|
A|--------------------------------------------|
E|--------------------------------------------|

E|--15-17-------------------------------------|
B|--------------------------------------------|
G|--------------------------------------------|
D|--------------------------------------------|
A|--------------------------------------------|
E|--------------------------------------------|

"Alfrente dicen ver a un vivo con una cruz"
E|---------------|
B|---------------|
G|---------------|
D|--7---5---7----|
A|--7---5---7----|
E|--5---3---5----|
"Pues necesitan de él, para llevar la muerte"
E|---------------|
B|---------------|
G|--5------------|
D|--5---5---7--7-|
A|--3---5---7--7-|
E|------3---5--5-|
"A quien les pueda ver"
E|---------------|
B|---------------|
G|---------------|
D|------7--------|
A|------7--------|
E|------5--------|
"No abras a nadie mujer, no hasta el amanecer"
E|--------------------------------------------|
B|--------------------------------------------|
G|--------------------------------------------|
D|--3xx-3xx--5xx-5xx--7xx-7xx-7xx-7xx---------|  x2
A|--3xx-3xx--5xx-5xx--7xx-7xx-7xx-7xx---------|
E|--1xx-1xx--3xx-3xx--5xx-5xx-5xx-5xx---------|

Ooooooh Ooooooh Ooooooh Ooooooooh
E|--------------------------------------------|
B|--------------------------------------------|
G|--5-----------------------------------------|
D|--5--5--7--3xx-3xx--5xx-5xx-----------------|
A|--3--5--7--3xx-3xx--5xx-5xx-----------------|
E|-----3--5--1xx-1xx--3xx-3xx-----------------|

Violín:
E|--12-10-------------12-10-12h13p12-10h12----|
B|--------13-12-13-10-------------------------|
G|--------------------------------------------|
D|--------------------------------------------|
A|--------------------------------------------|
E|--------------------------------------------|

E|--17-15-------------------------------------|
B|--------18-17-15-13h15p13h15p13h15p13h15----|
G|--------------------------------------------|
D|--------------------------------------------|
A|--------------------------------------------|
E|--------------------------------------------|

E|--------------------------------------------|
B|--12h13p12h13p12h13p12h13-------------------|
G|--------------------------------------------|
D|--------------------------------------------|
A|--------------------------------------------|
E|--------------------------------------------|

Aaaaaaahhh!!!
E|--------------------------------------------|
B|--------------------------------------------|
G|--9xx-9xx-9xx-9xx-9xx-9xx-9-----------------|
D|--9xx-9xx-9xx-9xx-9xx-9xx-9-----------------|
A|--7xx-7xx-7xx-7xx-7xx-7xx-7-----------------|
E|--------------------------------------------|

-*Violin 1* (2:47)

El final de eso queda con "eco"

Y la guitarra hace así:
E|--------------------------------------------|
B|--------------------------------------------|
G|--------------------------------------------|
D|--7--5---5/7-(con delay)--------------------|
A|--7--5---5/7--------------------------------|
E|--5--3---3/5--------------------------------|

E|--------------------------------------------|
B|--------------------------------------------|
G|--------------------------------------------|
D|--5-5-5--5-5-5------------------------------|
A|--5-5-5--5-5-5------------------------------|
E|--3-3-3--3-3-3------------------------------|

Violín 2 (3:18):
E|----------------------------------------------------------|
B|-----------------------------13---------------------------|
G|--14----14----14-------14-15-----12----12----12-------12--|
D|-----15----15----15-15--------------14----14----14-15-----|
A|----------------------------------------------------------|
E|----------------------------------------------------------|

E|----------------------------------------------------------|
B|-----------------------------------13----13---------------|
G|--14-15-14----14----14-------14-15----12----12------------| x5
D|-----------15----15----15-15-------------------14---------|
A|--------------------------------------------------15------|
E|----------------------------------------------------------|

E|----------------------------------------------------------|
B|----------------------------------------------------------|
G|----------------------------------------------------------|
D|--------12-14-15------------------------------------------|
A|--15-15---------------------------------------------------|
E|----------------------------------------------------------|

Al empezar la tercera vez que se toque eso, la guitarra se
mete tocando algo parecido a eso:
E|----------------------------------------------------------|
B|-----------------------13---------------------------------|
G|--14----------12-14-15----12----------------12-14-15-14---|
D|-----12-14-15----------------14----12-14-15---------------|
A|--------------------------------15------------------------|
E|----------------------------------------------------------|

E|----------------------------------------------------------|
B|--------------------13----13----13------------------------|
G|-----------12-14-15----12----12----12---14----------------|
D|--12-14-15---------------------------------15-12-12-14-15-|
A|----------------------------------------------------------|
E|----------------------------------------------------------|

E|----------------------------------------------------------|
B|----------------------------------------------------------|
G|--12-14-12-------------------12-14----------------12-14---|
D|-----------14-------12-14-15-------15-12-12-14-15---------|
A|--------------15-15---------------------------------------|
E|----------------------------------------------------------|

E|----------------------------------------------------------|
B|----------------------------------------------------------|
G|--12-------------------12-14p12p10-14p12p10-14p12p10-14p12|
D|-----14-------12-14-15------------------------------------|
A|--------15-15---------------------------------------------|
E|----------------------------------------------------------|

E|----------------------------------------------------------|
B|----------------------------------------------------------|
G|--10-14p12p10-14p12p10-14p12p10-14p12p10—12p10p9-12p10p9-|
D|----------------------------------------------------------|
A|----------------------------------------------------------|
E|----------------------------------------------------------|

E|----------------------------------------------------------|
B|----------------------------------------------------------|
G|--12p10p9-12p10p9-12p10p9-12p10p9-12p10p9-12p10p9---------|
D|----------------------------------------------------------|
A|----------------------------------------------------------|
E|----------------------------------------------------------|

E|----------------------------------------------------------|
B|----------------------------------------------------------|
G|--14p12p10-14p12p10-14p12p10-14p12p10-14p12p10-14p12p10---|
D|----------------------------------------------------------|
A|----------------------------------------------------------|
E|----------------------------------------------------------|

E|----------------------------------------------------------|
B|------------------------13--------------------------------|
G|--14p12p10-14p12p10--12----12-----------------------------|
D|------------------------------14--------------------------|
A|---------------------------------15-----------------------|
E|----------------------------------------------------------|

Aquí el violín toca lo mismo pero con pequeños cambios  (4:03):
E|--12-12-12-12---------------------------------------------|
B|--------------15-13-12-13-15-13-12-13-12------------------|
G|-----------------------------------------14---------------|
D|----------------------------------------------------------|
A|----------------------------------------------------------|
E|----------------------------------------------------------|

E|--12-12-12-12---------------------------------------------|
B|--------------15-13-12-13-15-13-12------------------------|
G|-----------------------------------14---------------------|
D|----------------------------------------------------------|
A|----------------------------------------------------------|
E|----------------------------------------------------------|

E|--12-12-12-12---------------------------------------------|
B|--------------15-13-12-13-15-13-12-13-12------------------|
G|-----------------------------------------14---------------|
D|----------------------------------------------------------|
A|----------------------------------------------------------|
E|----------------------------------------------------------|

E|--------------12-13-12------------------------------------|
B|-----12-13-15----------15-13-12----------12-13-15---------|
G|--14----------------------------14-12-14------------------|
D|----------------------------------------------------------|
A|----------------------------------------------------------|
E|----------------------------------------------------------|

E|--12-12-12-12---------------------------------------------|
B|--------------15-13-12-13-15-13-12-13-12------------------|
G|-----------------------------------------14---------------|
D|----------------------------------------------------------|
A|----------------------------------------------------------|
E|----------------------------------------------------------|

E|--12-12-12-12---------------------------------------------|
B|--------------15-13-12-13-15-13-12------------------------|
G|-----------------------------------14---------------------|
D|----------------------------------------------------------|
A|----------------------------------------------------------|
E|----------------------------------------------------------|

E|--12-12-12-12---------------------------------------------|
B|--------------15-13-12-13-15-13-12-13-12------------------|
G|-----------------------------------------14---------------|
D|----------------------------------------------------------|
A|----------------------------------------------------------|
E|----------------------------------------------------------|

E|--------------12----13-12-17-15-13-12----------15---------|
B|--12----15----------------------------15-13-12------------|
G|-----14----14----14---------------------------------------|
D|----------------------------------------------------------|
A|----------------------------------------------------------|
E|----------------------------------------------------------|

E|----------------------------------------------------------|
B|--------12-13-12--------12-13-12-----------12-13-12-------|
G|--14-14----------14--14----------14--14-14----------14----|
D|----------------------------------------------------------|
A|----------------------------------------------------------|
E|----------------------------------------------------------|

E|----------------------------------------------------------|
B|--13-15-------12-13-12--------12-13-12-----------12-13---|
G|--------14-14----------14--14----------14--14-14----------|
D|----------------------------------------------------------|
A|----------------------------------------------------------|
E|----------------------------------------------------------|

E|----------------------------------------------------------|
B|--12----13------------------------------------------------|
G|-----14----12-14------------------------------------------|
D|----------------------------------------------------------|
A|----------------------------------------------------------|
E|----------------------------------------------------------|

  “Si los oyes llegar y tu alma quieres salvar”
E|----------------------------------------------------------|
B|----------------------------------------------------------|
G|----------------------------------------------------------|
D|--7-------------------------------------------------------|
A|--7-------------------------------------------------------|
E|--5-------------------------------------------------------|

  “Un oráculo dibuja ya”
E|----------------------------------------------------------|
B|----------------------------------------------------------|
G|---------------------5------------------------------------|
D|--5-7----------------5--5-7-7-----------------------------|
A|--5-7----------------3--5-7-7-----------------------------|
E|--3-5-------------------3-5-5-----------------------------|
  “Reza, métete en el y no escuches su voz”
E|----------------------------------------------------------|
B|----------------------------------------------------------|
G|----------------------------------------------------------|
D|-------------------7--------------------------------------|
A|-------------------5--------------------------------------|
E|-------------------5--------------------------------------|
  “La muerte te hará creer que”
E|----------------------------------------------------------|
B|----------------------------------------------------------|
G|----------------------------------------------------------|
D|--3----------------5----------------7---------------------|
A|--3----------------5----------------7---------------------|
E|--1-1-1-1-1-1-1-1--3-3-3-3-3-3-3-3--5-5-5-5-5-5-5-5-------|
  “Soy yo Cielo, ábreme”
E|----------------------------------------------------------|
B|----------------------------------------------------------|
G|----------------------------------------------------------|
D|--3----------------5----------------7---------------------|
A|--3----------------5----------------7---------------------|
E|--1-1-1-1-1-1-1-1--3-3-3-3-3-3-3-3--5-5-5-5-5-5-5-5-------|

  “Ooooohh Ohhhh Oooohhh Ooooohhhh”
E|----------------------------------------------------------|
B|----------------------------------------------------------|
G|--5-------------------------------------------------------|
D|--5--5--7--3--5-------------------------------------------|
A|--3--5--7--3--5-------------------------------------------|
E|-----3--5--1--3-------------------------------------------|

   Se repite la guitarra con el violín así:
E|-----------------------------------------17-15------------|
B|--17-15-------------17-15-17h18p17p15h17-------18-17-15---|
G|--------17-16-17-15---------------------------------------|
D|----------------------------------------------------------|
A|----------------------------------------------------------|
E|----------------------------------------------------------|

E|----------------------------------------------------------|
B|--13h15p13h15p13h15p13h15-12h13p12h13p12h13p12h13---------|
G|----------------------------------------------------------|
D|----------------------------------------------------------|
A|----------------------------------------------------------|
E|----------------------------------------------------------|

  *Aquí se toca lo mismo que en el minuto 4:03

  *Y luego termina con la introducción.
Tap to rate this tab
 
# A B C D E F G H I J K L M N O P Q R S T U V W X Y Z