Guitaretab - guitar tabs
Song name
# A B C D E F G H I J K L M N O P Q R S T U V W X Y Z

Mago De Oz - La Voz Dormida tab

iolín
00:04
E----------15--------17-19-20-20-19-17-20---------|
B-13-15-17----17-15-----------------------17-15---|
G-------------------------------------------------|
D-------------------------------------------------|
A-------------------------------------------------|
E-------------------------------------------------|
        C5       G5        F5             C5 G5

E----------15-------15------------------|
B-13-15-17----17-15----15-13-17-13-12---|
G---------------------------------------|
D---------------------------------------|
A---------------------------------------|
E---------------------------------------|
        C5       G5       A5       G5

00:28
E----------15--------17-19-20-20-19-17-20---------|
B-13-15-17----17-15-----------------------17-15---|
G-------------------------------------------------|
D-------------------------------------------------|
A-------------------------------------------------|
E-------------------------------------------------|
        E5       D5        A5             C5 G5

E----------15-------15---------------------------|
B-13-15-17----17-15----15-13-17-13-12--17-12-10--|
G------------------------------------------------|
D------------------------------------------------|
A------------------------------------------------|
E------------------------------------------------|
        C5       G5       A5       G5         F5....

00:43
E-10-0-12-0-13-0-15-0-12-0-13-0-15-0-17-0-|
B-----------------------------------------|
G-----------------------------------------|
D-----------------------------------------|
A-----------------------------------------|
E-----------------------------------------|
  G5..........

E-13-0-15-0-17-0-19-0-15-0-17-0-19-0-20---|
B-----------------------------------------|
G-----------------------------------------|
D-----------------------------------------|
A-----------------------------------------|
E-----------------------------------------|
   ..........

00:46
E--------------------------|
B--------------------------|
G--------------------------|
D--------------------------|
A--------7--7--------------|
E--5-7-8----5----5-8-7-3---|

00:51
E-------------------------------------------------|
B-------------------------------------------------|
G-------------------------------------------------|
D--5----------------------------------------------|
A--3-----------------------5----7------------5----|
E--------------------------3----5------------3----|
  Soy de un sitio, de un lugar, de un tiempo que…

E-------------------------------------------------|
B-------------------------------------------------|
G-------------------------------------------------|
D-------------------------7-----------------------|
A--3-----------7----------5----------5------------|
E--1-----------5---------------------3------------|
  llaman eternidad, y al viento mi hogar.

E-------------------------------------------------|
B-------------------------------------------------|
G-------------------------------------------------|
D--5xxxxxxxxxxx-----------------------------------|
A--3xxxxxxxxxxx-5xxxxxx-7xxxxxxx-5xxxxx-----------|
E---------------3xxxxxx-5xxxxxxx-3xxxxx-----------|
  Donde la realidad la puedes cambiar

E-------------------------------------------------|
B-------------------------------------------------|
G-------------------------------------------------|
D--------------------7xxxxxxxxxxxxxxx-5xx---------|
A--3xxxxxxxxxxxx-7xx-5xxxxxxxxxxxxxxx-3xx-5xxxxx--|
E--1xxxxxxxxxxxx-5xx----------------------3xxxxx--|
  Si sabes preguntar y no das nada por hecho

01:16
E-------------------------------------------------|
B-------------------------------------------------|
G-------------------------------------------------|
D-----------------7---------5---------------------|
A-------2---------5---------3---------5-----------|
E-------0-----------------------------3-----------|
 ¿A qué sabe el dolor? ¿Es eterno el amor?

E--------------------------------------------------------|
B--------------------------------------------------------|
G--------------------------------------------------------|
D------------------7-----5--------------------------7----|
A--------2---------5-----3-----------------------5--5----|
E--------0---------------------------------------3-------|
 ¿La amargura es mujer? ¿De qué están hechos los sueños?

E----------------------------------------------------|
B----------------------------------------------------|
G----------------------------------------------------|
D-------------------7xxxxxxxxxxxxx--5xxxxx-----------|
A--------2xxxxxxxx--5xxxxxxxxxxxxx--3xxxxx--5xxxxxx--|
E--------0xxxxxxxx--------------------------3xxxxxx--|
 ¿Cuánto pesa un adiós? ¿Por qué es muda la paz?

flauta
E-----------------------------------------------|
B---20-19-17-12-13-15-----13-15-17-15-----------|
G-----------------------------------------------|
D-----------------------------------------------|
A-----------------------------------------------|
E-----------------------------------------------|

E--------------------------------------------------------|
B--------------------------------------------------------|
G--------------------------------------------------------|
D-5xxxxxxxxxxxxxxxx--7xxx--5--------7-7-7-7-7-7-7-7-7-7--|
A-3xxxxxxxxxxxxxxxx--5xxx--3--------5-5-5-5-5-5-5-5-5-5--|
E--------------------------------------------------------|
 ¿Puede dormir la traición? Pregúntate!!!

flauta
E-------------------------------17-19-17--------|
B--17-17-17-19-20-17-19-----20------------------|
G-----------------------------------------------|
D-----------------------------------------------|
A-----------------------------------------------|
E-----------------------------------------------|

Este es un tapping que van en la parte anterior

  t           t           t           t
E-19-15-12-15-19-15-12-15-19-15-12-15-19-15-12-15---|
B---------------------------------------------------|
G---------------------------------------------------|
D---------------------------------------------------|
A---------------------------------------------------|
E---------------------------------------------------|
...sabe el do........

   t           t           t           t
E-19-17-14-17-19-17-14-17-19-17-14-17-19-17-14-17---|
B---------------------------------------------------|
G---------------------------------------------------|
D---------------------------------------------------|
A---------------------------------------------------|
E---------------------------------------------------|
...lor ? ¿es e....

   t           t           t           t
E-20-15-12-15-20-15-12-15-20-15-12-15-20-15-12-15---|
B---------------------------------------------------|
G---------------------------------------------------|
D---------------------------------------------------|
A---------------------------------------------------|
E---------------------------------------------------|
...terno el a...

   t           t           t           t
E-19-15-12-15-19-15-12-15-19-15-12-15-19-15-12-15---|
B---------------------------------------------------|
G---------------------------------------------------|
D---------------------------------------------------|
A---------------------------------------------------|
E---------------------------------------------------|
...mor? ¿la amar...

   t           t           t           t
E-19-15-12-15-19-15-12-15-19-15-12-15-19-15-12-15---|
B---------------------------------------------------|
G---------------------------------------------------|
D---------------------------------------------------|
A---------------------------------------------------|
E---------------------------------------------------|
...gura es mu...

   t           t           t           t
E-19-17-14-17-19-17-14-17-19-17-14-17-19-17-14-17---|
B---------------------------------------------------|
G---------------------------------------------------|
D---------------------------------------------------|
A---------------------------------------------------|
E---------------------------------------------------|
..jer ?
   t           t           t           t
E-20-15-12-15-20-15-12-15-20-15-12-15-20-15-12-15---|
B---------------------------------------------------|
G---------------------------------------------------|
D---------------------------------------------------|
A---------------------------------------------------|
E---------------------------------------------------|
 ¿de que están hechos los...

   t           t           t           t
E-19-15-12-15-19-15-12-15-17-14-10-14-17-14-10-14---|
B---------------------------------------------------|
G---------------------------------------------------|
D---------------------------------------------------|
A---------------------------------------------------|
E---------------------------------------------------|
...sue...               ...ños ? ¿cuánto ...

   t           t           t           t
E-19-15-12-15-19-15-12-15-19-15-12-15-19-15-12-15---|
B---------------------------------------------------|
G---------------------------------------------------|
D---------------------------------------------------|
A---------------------------------------------------|
E---------------------------------------------------|
...pesa un a...

   t           t           t           t
E-19-17-14-17-19-17-14-17-19-17-14-17-19-17-14-17---|
B---------------------------------------------------|
G---------------------------------------------------|
D---------------------------------------------------|
A---------------------------------------------------|
E---------------------------------------------------|
...dios ? ¿por qué es...

   t           t           t           t
E-20-15-12-15-20-15-12-15-20-15-12-15-20-15-12-15---|
B---------------------------------------------------|
G---------------------------------------------------|
D---------------------------------------------------|
A---------------------------------------------------|
E---------------------------------------------------|
...muda la...

   t           t           t           t
E-19-15-12-15-19-15-12-15-19-15-12-15-19-15-12-15---|
B---------------------------------------------------|
G---------------------------------------------------|
D---------------------------------------------------|
A---------------------------------------------------|
E---------------------------------------------------|
...paz?

   t          t          t          t
E-15-12-8-12-15-12-8-12-15-12-8-12-15-12-8-12-------|
B---------------------------------------------------|
G---------------------------------------------------|
D---------------------------------------------------|
A---------------------------------------------------|
E---------------------------------------------------|
¿puede dormir la trai..

   t           t           t           t
E-17-14-10-14-17-14-10-14-17-14-10-14-17-14-10-14---|
B---------------------------------------------------|
G---------------------------------------------------|
D---------------------------------------------------|
A---------------------------------------------------|
E---------------------------------------------------|
...ción ?...

 t          t          t          t
E-15-12-8-12-15-12-8-12-15-12-8-12-15-12-8-12-------|
B---------------------------------------------------|
G---------------------------------------------------|
D---------------------------------------------------|
A---------------------------------------------------|
E---------------------------------------------------|
 ...pregunta...

   t           t           t           t
E-17-14-10-14-17-14-10-14-17-14-10-14-17-14-10-14---|
B---------------------------------------------------|
G---------------------------------------------------|
D---------------------------------------------------|
A---------------------------------------------------|
E---------------------------------------------------|
...te


Coro
01:41
E----------------------------------------------------|
B----------------------------------------------------|
G----------------------------------------------------|
D---------------7xxxxxxxxx--5xxxxxxxxxxxxxx-----7xx--|
A----5xxxxxxxx--5xxxxxxxxx--3xxxxxxxxxxxxxx--5x-5xx--|
E----3xxxxxxxx-------------------------------3x------|
 Y verás que mi voz vive en ti, soy La Voz Dormida

E----------------------------------------------------|
B----------------------------------------------------|
G----------------------------------------------------|
D---------------------7xxxxxx--9xxxxxx--7xxxx--------|
A-------5xxxxxxxxxxx--5xxxxxx--7xxxxxx--5xxxx--------|
E-------3xxxxxxxxxxx---------------------------------|
 de los que el Santo Oficio consiguió callar

E------------------------------------------------------|
B------------------------------------------------------|
G------------------------------------------------------|
D----------------7xxxxxxx--5xxxxxxxxxxxxxx--------7xx--|
A------5xxxxxxx--5xxxxxxx--3xxxxxxxxxxxxxx-----5x-5xx--|
E------3xxxxxxx--------------------------------3x------|
 Si me quieres seguir, volaremos sobre el arco iris

flauta
E---------10--------12-14-15-15-14-12-15-----------|
B-8-10-12----12-10-----------------------12-10-----|
G--------------------------------------------------|
D--------------------------------------------------|
A--------------------------------------------------|
E--------------------------------------------------|

E-----------------------------------------------------------------------|
B-----------------------------------------------------------------------|
G-----------------------------------------------------------------------|
D-----------------7xxxxx--9xxxxxxx--7xxxxxx--5---5xxxxxxxxxxxxxx--7-7xx-|
A------5xxxxxxxx--5xxxxx--7xxxxxxx--5xxxxxx--3---3xxxxxxxxxxxxxx--5-5xx-|
E------3xxxxxxxx--------------------------------------------------------|
 donde mueren las penas y nacen los besos en flor. Mi voz vive en ti!!!

flauta
E---------10-------10----------------------------|
B-8-10-12----12-10----10-8-12-8-7-12-7-5---------|
G------------------------------------------------|
D------------------------------------------------|
A------------------------------------------------|
E------------------------------------------------|


flauta
2:11
E-----------------12-12-----------------------------|
B--10-12-13-10-13-------12--12-12-10-10-------------|
G---------------------------------------12-10-12----|
D---------------------------------------------------|
A---------------------------------------------------|
E---------------------------------------------------|
         A5           E5          F5          C5

E-----------12-15-12-10-15-----------------------------10------------|
B--10-12-13-----------------10-10-12-13-12-10-12-12-13----13-12-13---|
G--------------------------------------------------------------------|
D--------------------------------------------------------------------|
A--------------------------------------------------------------------|
E--------------------------------------------------------------------|
         A5           G5    F5                G5

02:24
E-------------------------------------------|
B-------------------------------------------|
G-------------------------------------------|
D--5----------------------------------------|
A--3----------------5--------7-------5------|
E-------------------3--------5-------3------|
  He visto a Roma caer, y a Egipto morir,

E-------------------------------------------------|
B-------------------------------------------------|
G-------------------------------------------------|
D---------------------------7---------------------|
A--3---------------7--------5---------5-----------|
E--1---------------5------------------3-----------|
  y a Jesús de Nazaret, expirar sin saber

E---------------------------------------------------------|
B---------------------------------------------------------|
G---------------------------------------------------------|
D--5xxxxxxxxxxxxxxxxxxxxx---------------------------------|
A--3xxxxxxxxxxxxxxxxxxxxx--5xxxxxx-7xxxxxxxxx--5xxxxx-----|
E--------------------------3xxxxxx-5xxxxxxxxx--3xxxxx-----|
  Que en su nombre iba a nacer una secta de poder

E--------------------------------------------------------|
B--------------------------------------------------------|
G--------------------------------------------------------|
D-------------------------7xxxxxxxxxxxxxxxx--5xx---------|
A--3xxxxxxxxxxxxxx--7xxx--5xxxxxxxxxxxxxxxx--3xx-5xxxxx--|
E--1xxxxxxxxxxxxxx--5xxx-------------------------3xxxxx--|
  traficantes de ilusión, mercaderes de almas rotas.

02:49
E-----------------------------------------------------|
B-----------------------------------------------------|
G-----------------------------------------------------|
D---------------------7-------5-----------------------|
A------------2--------5-------3-----------5-----------|
E------------0----------------------------3-----------|
 ¿Por qué es sorda la fe? ¿y ciego el que cree?

E--------------------------------------------------|
B--------------------------------------------------|
G--------------------------------------------------|
D-----------------7-----5---------------------7----|
A---------2-------5-----3------------------5--5----|
E---------0--------------------------------3-------|
 ¿Sabe un rezo besar? ¿Cuánto cobra el celibato?
[ Tab from: http://www.guitaretab.com/m/mago-de-oz/90025.html ]
E-------------------------------------------------|
B-------------------------------------------------|
G-------------------------------------------------|
D--------------------7xxx--5xxxxxxx---------------|
A---------2xxxxxxxx--5xxx--3xxxxxxx--5xxxxxx------|
E---------0xxxxxxxx------------------3xxxxxx------|
 ¿Está en venta el altar? ¿o lo alquiláis

E--------------------------------------------------------------|
B--------------------------------------------------------------|
G--------------------------------------------------------------|
D-5xxxxxxxxxxxxxxxx--7xxxxxxxx--5---------7-7-7-7-7-7-7-7-7-7--|
A-3xxxxxxxxxxxxxxxx--5xxxxxxxx--3---------5-5-5-5-5-5-5-5-5-5--|
E--------------------------------------------------------------|
 para uso de un dictador? En uno Hitler folló!!

Coro
03:14


03:44
     A5               E5             F5           C5
He bajado hasta tu infierno, y a tus miedos pregunté
       A5           G5           F5          G5
¿dónde viven los fracasos? Y si aceptan un talón.
     A5            E5             F5        C5
He subido hasta tu cielo, su Dios no me recibió,
     A5           G5      F5 F5 F5 F5 F5        G5 G5 G5
a se derecha está Franco y entre los dos hay un hueco para Pinochet


Solo de teclado
04:09
E------------------------------------------|
B------------------------------------------|
G------------------------------------------|
D--------------------------5-5-5-7-7-7-----|
A--2xxxxx--5xxxxx--7xxxxx--3-3-3-5-5-5-----|
E--0xxxxx--3xxxxx--5xxxxx------------------|

04:39
E--------------------------------------------------|
B--------------------------------------------------|
G----------------2h4p2-------------------2h4p2-----|
D-----------2h4h5-----5p4-----------2h4h5-----5p4--|
A--2xxxxxxx----------------2xxxxxxx----------------|
E--0xxxxxxx----------------0xxxxxxx----------------|

E----------------------------------------------|
B----------------------------------------------|
G----------------------------------------------|
D----------------------------------------------|
A--5xxxxxxx------3h5p3-----7xxxxxxxx-----------|
E--3xxxxxxx-3h5h6-----6p5--5xxxxxxxx-----------|

Solo de flauta
04:51 con el mismo ritmo anterior
E-----------------------------------------------------|
B-8-8-8-8-12-10-10-8-8-7-8-8-8-8-8-12-10-10-8-8-7-8---|
G-----------------------------------------------------|
D-----------------------------------------------------|
A-----------------------------------------------------|
E-----------------------------------------------------|

E----------------------------------------------------------|
B-5-5-5-5-8-7-7-5-5-4-5--13-13-13-13-17-15-15-13-13-12-13--|
G----------------------------------------------------------|
D----------------------------------------------------------|
A----------------------------------------------------------|
E----------------------------------------------------------|

Violín
05:03
E-----12------------------------------------------|
B--12----12-13--10-12-10-8-12-10-8----------------|
G----------------------------------11-12-11-9-----|
D-------------------------------------------------|
A-------------------------------------------------|
E-------------------------------------------------|

E-----12------------------------------------------|
B--12----12-13--10-12-10-8-12-10-8----------------|
G----------------------------------11-8-9---------|
D-------------------------------------------------|
A-------------------------------------------------|
E-------------------------------------------------|

Ritmo que va con el violín de arriba
E----------------------------------------------|
B----------------------------------------------|
G----------------------------------------------|
D--9xxxx-5xxxx-4xxxx-------9xxxx-5xxxx-4-8-9---|
A--7xxxx-3xxxx-2xxxx-2xxxx-7xxxx-3xxxx-2-6-7---|
E--------------------0xxxx---------------------|

05:14
E---------------------------------------|
B---------------------------------------|
G---------------------------------------|
D----------9-9---------------9---9------|
A--4-5-7-9-7-7-9-9---4-5-7-9-7-9-7------|
E--2-3-5-7-----7-7---2-3-5-7---7--------|

05:20
E-----12------------------------------------------|
B--12----12-13--10-12-10-8-12-10-8----------------|
G----------------------------------11-12-11-9-----|
D-------------------------------------------------|
A-------------------------------------------------|
E-------------------------------------------------|

E-----12------------------------------------------|
B--12----12-13--10-12-10-8-12-10-8----------------|
G----------------------------------11-8-9---------|
D-------------------------------------------------|
A-------------------------------------------------|
E-------------------------------------------------|

E----------------------------------------------|
B----------------------------------------------|
G----------------------------------------------|
D--9xxxx-5xxxx-4xxxx-------9xxxx-5xxxx-4-8-9---|
A--7xxxx-3xxxx-2xxxx-2xxxx-7xxxx-3xxxx-2-6-7---|
E--------------------0xxxx---------------------|

05:33
E--------------------------------------|
B--------------------------------------|
G--------------------------------------|
D----------9-9---------------9---------|
A--4-5-7-9-7-7-9-9---4-5-7-9-7-9-------|
E--2-3-5-7-----7-7---2-3-5-7---7-------|

05:38
E-----------------------------------------------------------------|
B-----------------------------------------------------------------|
G------9-------4-------9-----5---5-----9-------4-----9------------|
D--------9-------4-------9-----5---------9-------4-----9----------|
A--7-7-----2-2-----7-7-----3-------7-7-----2-2-----7-----3-2-6-7--|
E-----------------------------------------------------------------|

E------------------------------------------------------|
B------------------------------------------------------|
G------------------------------------------------------|
D--9-9-9-4-4-4-9-9-9-5-5-5-9-9-9-4-4-4--9--5--4-8-9----|
A--7-7-7-2-2-2-7-7-7-3-3-3-7-7-7-2-2-2--7--3--2-6-7----|
E------------------------------------------------------|

E------------------------------------------------------|
B------------------------------------------------------|
G------------------------------------------------------|
D--9xxxx-4xxxx-9xxxx-5xxxx-9xxxx-4xxxx--9--5--4-8-9----|
A--7xxxx-2xxxx-7xxxx-3xxxx-7xxxx-2xxxx--7--3--2-6-7----|
E------------------------------------------------------|

05:56
E-------------------------------------------------------------------------|
B-------------------------------------------------------------------------|
G-------------------------------------------------------------------------|
D-------9-9-------9-9---------9-9-------9-9---------9-9-------9-9---------|
A-------7-7-------7-7---------7-7-------7-7---------7-7-------7-7---------|
E-0-0-0-----0-0-0-------0-0-0-----0-0-0-------0-0-0-----0-0-0-------0-0-0-|

06:01
E-----------------------------------------|
B-----------------------------------------|
G-----------------------------------------|
D--9-9-------9-9-------9-9-------12-------|
A--7-7-------7-7-------7-7-------10-12----|
E------0-0-0-----0-0-0-----0-0-0----10----|

E-----------------------------------------|
B-----------------------------------------|
G-----------------------------------------|
D--9-9-------9-9-------9-9----------------|
A--7-7-------7-7-------7-7--------10-9----|
E------0-0-0-----0-0-0-----0-0-0---8-7----|

Violín que va con el ritmo anterior
E---------------------------------------------------------|
B--------------------------------------12-13-12-10--------|
G--9-9-9-11h12-9-9-9-11h12-9-9-9-11h12-------------12-11--|
D---------------------------------------------------------|
A---------------------------------------------------------|
E---------------------------------------------------------|

E---------------------------------------------------------|
B---------------------------------------------------------|
G--9-9-9-11h12-9-9-9-11h12-9-9-9-11h12--------------------|
D--------------------------------------10-10-10-9-9-9-----|
A---------------------------------------------------------|
E---------------------------------------------------------|

Armonización de guitarra
E------------------------------------------------------------------|
B------------------------------------------------------------------|
G--12-12-12-14h16-12-12-12-14h16-12-12-12-14h16-16-16-16-14-14-14--|
D------------------------------------------------------------------|
A------------------------------------------------------------------|
E------------------------------------------------------------------|

E------------------------------------------------------------------|
B------------------------------------------------------------------|
G--12-12-12-14h16-12-12-12-14h16-12-12-12-14h16--------------------|
D-----------------------------------------------14-14-14-13-13-13--|
A------------------------------------------------------------------|
E------------------------------------------------------------------|

06:31
E-------------------------|
B-------------------------|
G-------------------------|
D---------9-9-------------|
A--7-9-10---7--7-10-9-5---|
E-------------------------|

Solo de guitarra
06:35
E------------------------------------------|
B------------------------------------------|
G------------------------------------------|
D--------------------------5-5-5-7-7-7-----|
A--2xxxxx--5xxxxx--7xxxxx--3-3-3-5-5-5-----|
E--0xxxxx--3xxxxx--5xxxxx------------------|

06:59
E-------------------------------------------|
B-------------------------------------------|
G-------------------------------------------|
D-----------------5-5-5-5-5-5--7xxxxxxxxxx--|
A--2--5-5-5-5-5-5-3-3-3-3-3-3--5xxxxxxxxxx--|
E--0--3-3-3-3-3-3---------------------------|

E-----------------------------------------------|
B-----------------------------------------------|
G-----------------------------------------------|
D----------------------5xxxxxxxxx--7xxxxxxxxxx--|
A--2xxxxxx-5xxxxxxxxx--3xxxxxxxxx--5xxxxxxxxxx--|
E--0xxxxxx-3xxxxxxxxx---------------------------|

Punteado
07:11
E------------------------------------------------------|
B-----------------15-10h12p10-12----------12-10----10--|
G--9--9-9-9-11-12----------------9-11-12--------12-----|
D------------------------------------------------------|
A------------------------------------------------------|
E------------------------------------------------------|
  E5              G5       A5    C5       D5

E------------------------------------------------------|
B-----------------15-10h12p10-12-----------------------|
G--9--9-9-9-11-12----------------9--11-12-11-9h11p9----|
D------------------------------------------------------|
A------------------------------------------------------|
E------------------------------------------------------|
  E5              G5       A5  C5       D5

Solo de guitarra
07:23
E-----------------------------------------------|
B-----------------------------------------------|
G-----------------------------------------------|
D----------------------5xxxxxxxxx--7xxxxxxxxxx--|
A--2xxxxxx-5xxxxxxxxx--3xxxxxxxxx--5xxxxxxxxxx--|
E--0xxxxxx-3xxxxxxxxx---------------------------|

Punteado
07:35
E---------------------------------------------------|
B-----------12-------12-----------------------------|
G--11-12-14----12-------14-11----14-12-------12-11--|
D-----------------12----------12-------14-----------|
A-----------------------------------------14--------|
E---------------------------------------------------|
            G5          D5          E5          D5

E-----------------15-19-17-------17-15-------15-14--|
B-----------12-15----------19-15-------17-13--------|
G--11-12-14-----------------------------------------|
D---------------------------------------------------|
A---------------------------------------------------|
E---------------------------------------------------|
            G5           D5          C5         D5

Cambio de tonalidad
07:59
E---------------------------------------------|
B---------9-----9-----------------------------|
G--8-9-11---9-----11-8---11-9--------9-8------|
D-------------9--------9-------11-------------|
A---------------------------------11----------|
E---------------------------------------------|
          E5      B5        C#5        B5

E--------------12-16-14-------14-12-------12-11---|
B---------9-12----------16-12-------14-10---------|
G--8-9-11-----------------------------------------|
D-------------------------------------------------|
A-------------------------------------------------|
E-------------------------------------------------|
          E5         B5           A5         B5

08:11
ooohhhhhhhhhhhhhhhhhhhhh
E5  B5  C#5  B5  E5  B5  A5  B5

08:23
     E5     B5        C#5     B5
Y verás que yo soy La Voz Dormida,
E5    B5    A5          B5
sígueme, mi voz vive en ti!!!

Coro
08:36
E----------------------------------------------------|
B----------------------------------------------------|
G----------------------------------------------------|
D---------------5xxxxxxxxx--3xxxxxxxxxxxxxx-----5xx--|
A----3xxxxxxxx--3xxxxxxxxx--1xxxxxxxxxxxxxx--3x-3xx--|
E----1xxxxxxxx-------------------------------1x------|
 Y verás que mi voz vive en ti, soy La Voz Dormida

E----------------------------------------------------|
B----------------------------------------------------|
G----------------------------------------------------|
D---------------------5xxxxxx--7xxxxxx--5xxxx--------|
A-------3xxxxxxxxxxx--3xxxxxx--5xxxxxx--3xxxx--------|
E-------1xxxxxxxxxxx---------------------------------|
 de los que el Santo Oficio consiguió callar

E------------------------------------------------------|
B------------------------------------------------------|
G------------------------------------------------------|
D----------------5xxxxxxx--3xxxxxxxxxxxxxx--------5xx--|
A------3xxxxxxx--3xxxxxxx--1xxxxxxxxxxxxxx-----3x-3xx--|
E------1xxxxxxx--------------------------------1x------|
 Si me quieres seguir, volaremos sobre el arco iris

E-----------------------------------------------------------------------|
B-----------------------------------------------------------------------|
G-----------------------------------------------------------------------|
D-----------------5xxxxx--7xxxxxxx--5xxxxxx--3---3xxxxxxxxxxxxxx--5-5xx-|
A------3xxxxxxxx--3xxxxx--5xxxxxxx--3xxxxxx--1---1xxxxxxxxxxxxxx--3-3xx-|
E------1xxxxxxxx--------------------------------------------------------|
 donde mueren las penas y nacen los besos en flor. Oooooohhhhhhhhhhhh


E----------------------------------------------------|
B----------------------------------------------------|
G----------------------------------------------------|
D---------------7xxxxxxxxx--5xxxxxxxxxxxxxx-----7xx--|
A----5xxxxxxxx--5xxxxxxxxx--3xxxxxxxxxxxxxx--5x-5xx--|
E----3xxxxxxxx-------------------------------3x------|
 Y verás que mi voz vive en ti, soy La Voz Dormida

E----------------------------------------------------|
B----------------------------------------------------|
G----------------------------------------------------|
D---------------------7xxxxxx--9xxxxxx--7xxxx--------|
A-------5xxxxxxxxxxx--5xxxxxx--7xxxxxx--5xxxx--------|
E-------3xxxxxxxxxxx---------------------------------|
 de los que el Santo Oficio consiguió callar

E------------------------------------------------------|
B------------------------------------------------------|
G------------------------------------------------------|
D----------------7xxxxxxx--5xxxxxxxxxxxxxx--------7xx--|
A------5xxxxxxx--5xxxxxxx--3xxxxxxxxxxxxxx-----5x-5xx--|
E------3xxxxxxx--------------------------------3x------|
 Si me quieres seguir, volaremos sobre el arco iris

E-----------------------------------------------------------------------|
B-----------------------------------------------------------------------|
G-----------------------------------------------------------------------|
D-----------------7xxxxx--9xxxxxxx--7xxxxxx--5---5xxxxxxxxxxxxxx--7-7xx-|
A------5xxxxxxxx--5xxxxx--7xxxxxxx--5xxxxxx--3---3xxxxxxxxxxxxxx--5-5xx-|
E------3xxxxxxxx--------------------------------------------------------|
 donde mueren las penas y nacen los besos en flor. Mi voz vive en ti!!!


09:36
     A5            E5            F5         C5
He ardido en mil hogueras, me violaron en Perú,
     A5          G5
he vivido el holocausto

E-----------------------------------------------|
B-----------------------------------------------|
G-----------------------------------------------|
D-----------------------------------------------|
A-----------------------------------------------|
E---1---1--3--5---3-1---3----3--5--7-5---3-5----|
  la inquisición, apartheid, dictaduras, poder,

E----------------------------------------------|
B----------------------------------------------|
G----------------------------------------------|
D----------------------------------------------|
A----------------------------------------2-----|
E--5-7--8-7----5--7--7---8---10-8----7---0-----|
   pederastia, la marca del diablo es la cruz

piano
09:52
E----------------------|
B----------------------|
G----------------------|
D---------9--------9---|
A--7-9-10---7-9-10-----|
E----------------------|

Final
09:52
E------------------|
B------------------|
G------------------|
D------------------|
A----------7-------|
E--5-8-7-3-5-------|
Related for La Voz Dormida tab
La Voz Dormida chords by Mago De Oz