Song name
# A B C D E F G H I J K L M N O P Q R S T U V W X Y Z

Magtens Korridorer - Kom Og Maerk tab

Kom og Mærk (maerk) by Magtens Korridorer.
Edited by Joachim Malling¨

Standard tuning: E A D G B E

e-----------------------------------------------------|
B-----------------------------------------------------|
G-----------------------------------------------------|
D-----------------------------------------------------|
A-----7-8-7----------7-8-7-------7-8-7----------7-8-7-|
E-5-8-------8-5--5-8---------5-8-------8-5--5-8-------|

e-----------------------------------------------------|
B-----------------------------------------------------|
G-----------------------------------------------------|
D--------------------7--------------------------------|
A-----7-8-7------------8-7-------7-8-7----------7-8-7-|
E-3-8-------8-3--3-8---------3-8-------8-3--3-8-------|

Please rate if you liked it!
Visit my channel for more cool tabs like this!
Tap to rate this tab
# A B C D E F G H I J K L M N O P Q R S T U V W X Y Z