Song name
# A B C D E F G H I J K L M N O P Q R S T U V W X Y Z

Maike Rosa Vogel - Where We Meet Whores Glory tab

-------------------------------------------------------------------------------
     WHERE WE MEET (Whores Glory) - Maike Rosa Vogel
-------------------------------------------------------------------------------
Tabbed by: Benni31113
Tuning: Standard Tuning

Intro:

e|---------------------------------------------------|
B|-----5-----5-----5-----5-----5-----5-----5-----5---|
G|---------------------------------------------------|          3x
D|---------------------------------------------------|
A|--3-----3-----3-----3------------------------------|
E|--------------------------0-----0-----0-----0------|

**********  ************  *********  *************  ***********  ******************    ***********

When it is all true and hunger ...

e|------------------------------|
B|-----5-----5-----5-----5------|
G|------------------------------|     2x
D|------------------------------|
A|--3-----3---------------------|
E|--------------0-----0---------|


where I want you to look at me and ...

e|------------------------------|
B|------------------------------|
G|-----7-----7-----5-----5------|     2x
D|------------------------------|
A|--5-----5-----3-----3---------|
E|------------------------------|

meeet, meeet .. 

e|------------------------------|
B|------------------------------|
G|-----9-----9-----9-----9------|     2x
D|------------------------------|
A|--7-----7---------------------|
E|--------------5-----5---------|


always repeat all parts (expt. intro)
Tap to rate this tab
# A B C D E F G H I J K L M N O P Q R S T U V W X Y Z