Song name
# A B C D E F G H I J K L M N O P Q R S T U V W X Y Z

Maino - All The Above tab

Alright first tab, but I think I got the basics, different types of
strumming all sound good on this song, so just listen to the song 
and pick out your own unique strumming pattern :)

-------------------------------------------------------------------------
                   All The Above - Maino ft. T-Pain
-------------------------------------------------------------------------
Tabbed by: Trevor Howard
Email: trevorhoward2@hotmail.com

Tuning: Standard

e|--3--3--3--3-----4--4--4--4--------------------------------------------|
B|--4--4--4--4-----4--4--4--4--------------------------------------------|
G|--3--3--3--3-----5--5--5--5--------------------------------------------|
D|--5--5--5--5-----6--6--6--6--------------------------------------------|
A|--3--3--3--3-----6--6--6--6--------------------------------------------|
E|--3--3--3--3-----4--4--4--4--------------------------------------------|

e|--x--x--x--x-----6--6--6--6--------------------------------------------|
B|--8--8--8--8-----6--6--6--6--------------------------------------------|
G|--8--8--8--8-----7--7--7--7--------------------------------------------|
D|--8--8--8--8-----8--8--8--8--------------------------------------------|
A|--6--6--6--6-----8--8--8--8--------------------------------------------|
E|--6--6--6--6-----6--6--6--6--------------------------------------------|
Tap to rate this tab
 
# A B C D E F G H I J K L M N O P Q R S T U V W X Y Z