Song name
# A B C D E F G H I J K L M N O P Q R S T U V W X Y Z

Major Accident - Fight To Win tab

This is a great-ass song. Always brings me up, and this tab is almost 100% accurate.

Intro
e|---------------------------------|
B|---------------------------------|
G|-7-6-4-7-6-4-7-6-4-7-6-4-7--6--4-| x2
D|---------------------------------|
A|---------------------------------|
E|---------------------------------|

Verse
e|-------------------------|
B|-------------------------|
G|-7-7-7-7-6-6-6-6-4-4-4-4-|
D|-7-7-7-7-6-6-6-6-4-4-4-4-|
A|-5-5-5-5-4-4-4-4-2-2-2-2-|
E|-------------------------|

Chorus x2
e|------------------|
B|------------------|
G|------------------| x3
D|-5-xx-7-xx-4-xx-2-|
A|-3-xx-5-xx-2-xx-0-|
E|------------------|

e|-------------|
B|-------------|
G|-------------| x1
D|-5-xx-7-xx---|
A|-3-xx-5-xx-5-|
E|-----------3-|

Gt.2 x2
e|-----------------|
B|-----------------|
G|-5-5-7-7-4-4-2-2-| x3
D|-----------------|
A|-----------------|
E|-----------------|

e|-------------|
B|-------------|
G|-5-5-7-7-----| x1
D|---------5-5-|
A|-------------|
E|-------------|

Solo
e|---------------8-6-5-3-6-5----3-6----8-6-5-3-6~----6-5-3---------|
B|-8-8-8-8-8---6-------------6-------6-----------------------------|
G|-----------------------------------------------------------------|
D|-----------------------------------------------------------------|
A|-----------------------------------------------------------------|
E|-----------------------------------------------------------------|

e|-----8-6-5-3-6-5---3--6----8-6-5-3-6~---6-5-3\-------------------|
B|---6-------------6------6----------------------------------------|
G|-----------------------------------------------------------------|
D|-----------------------------------------------------------------|
A|-----------------------------------------------------------------|
E|-----------------------------------------------------------------|

Outro (I think)
e|-3-2-0------------|
B|-------4-2-0------|
G|--------------2-0-| x4
D|------------------|
A|------------------|
E|------------------|

There you go. There ain't no way punk is dead.
Tap to rate this tab
# A B C D E F G H I J K L M N O P Q R S T U V W X Y Z